Song name
# A B C D E F G H I J K L M N O P Q R S T U V W X Y Z

Wildhearts - Rooting For The Bad Guy tab

hey all,

this is a really quick tab as ive just figured this out (sorry its not all of it).

Eb tuning

Main riff
]-----------------------------------|
]-----------------------------------|
]-----------------------------------|
]-2-------------------------4-------|
]-2-4-4/5-4-4-2-4/5/4-2-------------|
]-0-2-2/3-2-2-0-2/3/2---------------|   -repeat

verse
]---------------|
]---------------|
]---------------|
]-44444---------|
]-22222---------| graduly bend
]---------------|

In the dark...
]------------------------------------------|
]------------------------------------------|
]------------------------------------------|
]-7777-9-----------5555--------------------|
]-5555-7--7777--3333-5555------------------|
]------------ 5555----------3333-----------|

chorous

(same as above just stomp it a little)

riff after chorous
]------------------------------------------------------|
]------------------------------------------------------|
]------------------------------------------------------|
]-9/-777--9/-777---9/-7------------------5*------------|  * harmonic
]-7/-555--7/-555---7/-5----7/55--7/55------------------|
]---------------------------------5/33--5/33-----------|

]------------------|
]------------------|
]-444444-----------|
]------------------|
]-222222-----------|
]------------------|
Tap to rate this tab
# A B C D E F G H I J K L M N O P Q R S T U V W X Y Z