Song name
# A B C D E F G H I J K L M N O P Q R S T U V W X Y Z

Wildside - Looks Like Love tab

-----------------------------------------------------------------------------

                  Looks Like Love (intro) - Wildside (GUITAR)
               When I say 'intro' I mean intro, verse and chorus
            http://www.sleazeroxx.com/bands/wildside/wildside.shtml
-----------------------------------------------------------------------------
Tabbed by: Scotto10

Tuning: Tune down one half step

=============================================================================



Guitar 1


          PM PM       PM PM       PM PM       PM PM
      S S S  S   S  S S  S   S  S S  S   S  S S  S
D#||------------------------------------------------|
A#||--8-8-------10-10-------13-13-------12-12-------|
F#||------0--0--------0--0--------0--0--------0--0--|
C#||------------------------------------------------|
G#||------------------------------------------------|
D#||------------------------------------------------|


      PM PM       PM PM       PM PM       PM PM
  S S S  S   S  S S  S   S  S S  S   S  S S  S
------------------------------------------------|
--8-8-------10-10-------13-13-------12-12-------|
------0--0--------0--0--------0--0--------0--0--|
------------------------------------------------|
------------------------------------------------|
------------------------------------------------|


      PM PM       PM PM       PM PM       PM PM
  S S S  S   S  S S  S   S  S S  S   S  S S  S
------------------------------------------------|
--8-8-------10-10-------13-13-------12-12-------|
------0--0--------0--0--------0--0--------0--0--|
------------------------------------------------|
------------------------------------------------|
------------------------------------------------|


      PM PM       PM PM       PM PM       PM PM
  S S S  S   S  S S  S   S  S S  S   S  S S  S
------------------------------------------------|
--8-8-------10-10-------13-13-------12-12-------|
------0--0--------0--0--------0--0--------0--0--|
------------------------------------------------|
------------------------------------------------|
------------------------------------------------|


      PM PM       PM PM       PM PM       PM PM
  S S S  S   S  S S  S   S  S S  S   S  S S  S
------------------------------------------------|
--8-8-------10-10-------13-13-------12-12-------|
------0--0--------0--0--------0--0--------0--0--|
------------------------------------------------|
------------------------------------------------|
------------------------------------------------|


      PM PM       PM PM       PM PM       PM PM
  S S S  S   S  S S  S   S  S S  S   S  S S  S
------------------------------------------------|
--8-8-------10-10-------13-13-------12-12-------|
------0--0--------0--0--------0--0--------0--0--|
------------------------------------------------|
------------------------------------------------|
------------------------------------------------|


      PM PM       PM PM       PM PM       PM PM
  S S S  S   S  S S  S   S  S S  S   S  S S  S
------------------------------------------------|
--8-8-------10-10-------13-13-------12-12-------|
------0--0--------0--0--------0--0--------0--0--|
------------------------------------------------|
------------------------------------------------|
------------------------------------------------|


      PM PM       PM PM       PM PM       PM PM
  S S S  S   S  S S  S   S  S S  S   S  S S  S
------------------------------------------------|
--8-8-------10-10-------13-13-------12-12-------|
------0--0--------0--0--------0--0--------0--0--|
------------------------------------------------|
------------------------------------------------|
------------------------------------------------|


      PM PM       PM PM       PM PM       PM PM
  S S S  S   S  S S  S   S  S S  S   S  S S  S
------------------------------------------------|
--8-8-------10-10-------13-13-------12-12-------|
------0--0--------0--0--------0--0--------0--0--|
------------------------------------------------|
------------------------------------------------|
------------------------------------------------|


      PM PM       PM PM       PM PM       PM PM
  S S S  S   S  S S  S   S  S S  S   S  S S  S
------------------------------------------------|
--8-8-------10-10-------13-13-------12-12-------|
------0--0--------0--0--------0--0--------0--0--|
------------------------------------------------|
------------------------------------------------|
------------------------------------------------|


      PM PM       PM PM       PM PM       PM PM
  S S S  S   S  S S  S   S  S S  S   S  S S  S
------------------------------------------------|
--8-8-------10-10-------13-13-------12-12-------|
------0--0--------0--0--------0--0--------0--0--|
------------------------------------------------|
------------------------------------------------|
------------------------------------------------|


      PM PM       PM PM       PM PM       PM PM
  S S S  S   S  S S  S   S  S S  S   S  S S  S
------------------------------------------------|
--8-8-------10-10-------13-13-------12-12-------|
------0--0--------0--0--------0--0--------0--0--|
------------------------------------------------|
------------------------------------------------|
------------------------------------------------|


      PM PM       PM PM       PM PM       PM PM
  S S S  S   S  S S  S   S  S S  S   S  S S  S     W
------------------------------------------------|-------------------|
--8-8-------10-10-------13-13-------12-12-------|-------------------|
------0--0--------0--0--------0--0--------0--0--|-------------------|
------------------------------------------------|-------------------|
------------------------------------------------|-------------------|
------------------------------------------------|--3----------------|


  H        H
--------------------|-----------|-----------|-----------|-----------|
--------------------|-----------|-----------|-----------|-----------|
--------------------|-----------|-----------|-----------|-----------|
--------------------|-----------|-----------|-----------|-----------|
--------------------|-----------|-----------|-----------|-----------|
--L-----------------|-----------|-----------|-----------|-----------|


-----------|-----------|-----------|-----------|-----------|
-----------|-----------|-----------|-----------|-----------|
-----------|-----------|-----------|-----------|-----------|
-----------|-----------|-----------|-----------|-----------|
-----------|-----------|-----------|-----------|-----------|
-----------|-----------|-----------|-----------|-----------|


              |--3--| |--3--| |--3-|
  H        E  S  S  S S  S  S S S  S    W                   W
-------------------------------------|-------------------|-------------------|
-------------------------------------|-------------------|-------------------|
--------------4p-2p-0----------------|-------------------|-------------------|
----------------------4p-2p-0--------|-------------------|--5----------------|
------------------------------5-3s-2-|--5----------------|--3----------------|
-------------------------------------|--3----------------|-------------------|


                          PM PM       PM PM       PM PM       PM PM
  W                   S S S  S   S  S S  S   S  S S  S   S  S S  S
-------------------|------------------------------------------------|
-------------------|--8-8-------10-10-------13-13-------12-12-------|
-------------------|------0--0--------0--0--------0--0--------0--0--|
-------------------|------------------------------------------------|
--3----------------|------------------------------------------------|
--1----------------|------------------------------------------------|


      PM PM       PM PM       PM PM       PM PM
  S S S  S   S  S S  S   S  S S  S   S  S S  S
------------------------------------------------|
--8-8-------10-10-------13-13-------12-12-------|
------0--0--------0--0--------0--0--------0--0--|
------------------------------------------------|
------------------------------------------------|
------------------------------------------------|


      PM PM       PM PM       PM PM       PM PM
  S S S  S   S  S S  S   S  S S  S   S  S S  S
------------------------------------------------|
--8-8-------10-10-------13-13-------12-12-------|
------0--0--------0--0--------0--0--------0--0--|
------------------------------------------------|
------------------------------------------------|
------------------------------------------------|


      PM PM       PM PM       PM PM       PM PM
  S S S  S   S  S S  S   S  S S  S   S  S S  S
------------------------------------------------|
--8-8-------10-10-------13-13-------12-12-------|
------0--0--------0--0--------0--0--------0--0--|
------------------------------------------------|
------------------------------------------------|
------------------------------------------------|


      PM PM       PM PM       PM PM       PM PM
  S S S  S   S  S S  S   S  S S  S   S  S S  S
------------------------------------------------|
--8-8-------10-10-------13-13-------12-12-------|
------0--0--------0--0--------0--0--------0--0--|
------------------------------------------------|
------------------------------------------------|
------------------------------------------------|


      PM PM       PM PM       PM PM       PM PM
  S S S  S   S  S S  S   S  S S  S   S  S S  S
------------------------------------------------|
--8-8-------10-10-------13-13-------12-12-------|
------0--0--------0--0--------0--0--------0--0--|
------------------------------------------------|
------------------------------------------------|
------------------------------------------------|


      PM PM       PM PM       PM PM       PM PM
  S S S  S   S  S S  S   S  S S  S   S  S S  S
------------------------------------------------|
--8-8-------10-10-------13-13-------12-12-------|
------0--0--------0--0--------0--0--------0--0--|
------------------------------------------------|
------------------------------------------------|
------------------------------------------------|


      PM PM       PM PM       PM PM       PM PM
  S S S  S   S  S S  S   S  S S  S   S  S S  S      W
------------------------------------------------|--------------------|
--8-8-------10-10-------13-13-------12-12-------|--------------------|
------0--0--------0--0--------0--0--------0--0--|--10----------------|
------------------------------------------------|--10----------------|
------------------------------------------------|---8----------------|
------------------------------------------------|--------------------|


  H        Q    Q       W
---------------------|-------------------||
---------------------|-------------------||
--5------------------|-------------------||
--5------------------|-------------------||
--3------------------|-------------------||
-----------0----1----|--3----------------||





==============================================================
==============================================================


Guitar 2

              H        Q     Q        W                   W
D#||-------|-----------------------|-------------------|--0----------------|
A#||-------|-----------------------|-------------------|--0----------------|
F#||-------|-----------------------|-------------------|--9----------------|
C#||-------|-----------------------|--5----------------|--9----------------|
G#||-------|----------------12\----|--5----------------|--7----------------|
D#||-------|-----------------------|--3----------------|--0----------------|


                      |----3----|
  W                   Q    Q    Q    Q    E   E     Q    E  E  H
-------------------|-----------------------------|----------------------|
-------------------|-----------------------------|----------------------|
-------------------|--5----5----5----L----5s--7--|----------------------|
--3----------------|--5----5----5----L----5s--7--|--5----5--5--L--------|
--3----------------|--3----3----3----L----3s--5--|--5----5--5--L--------|
--1----------------|-----------------------------|--3----3--3--L--------|


  Q    E  E  H            Q     E   E   H           Q    E  Q.     E   E
----------------------|--------------------------|------------------------|
----------------------|--------------------------|------------------------|
--9----9--9-----------|--10----10--10---L--------|--5----5--5------5s--7--|
--9----9--9--L--------|--10----10--10---L--------|--5----5--5------5s--7--|
--7----7--7--L--------|---8-----8---8---L--------|--3----3--5------3s--5--|
--0----0--0--L--------|--------------------------|------------------------|


  Q    E  E  H           Q    E  E  H            Q     E   E   H
----------------------|----------------------|--------------------------|
----------------------|----------------------|--------------------------|
----------------------|--9----9--9-----------|--10----10--10---L--------|
--5----5--5--L--------|--9----9--9--L--------|--10----10--10---L--------|
--5----5--5--L--------|--7----7--7--L--------|---8-----8---8---L--------|
--3----3--3--L--------|--0----0--0--L--------|--------------------------|


  H        Q    Q       W                   H.           Q
---------------------|-------------------|--------------------|
---------------------|-------------------|--------------------|
--5--------5----7----|--0----------------|--L-----------------|
--5--------5----7----|--0----------------|--L-----------------|
--3--------3----5----|-------------------|--------------------|
---------------------|--3----------------|--L-----------------|


                           |---3---|
                      Q    E   E   E  H
-------------------|---------------------------|-------------------|
-------------------|-------5h--6p--5-----------|-------------------|
-------------------|---------------------------|-------------------|
-------------------|---------------------------|-------------------|
-------------------|---------------------------|-------------------|
-------------------|---------------------------|-------------------|


-------------------|-------------------|-------------------|
-------------------|-------------------|-------------------|
-------------------|-------------------|-------------------|
-------------------|-------------------|-------------------|
-------------------|-------------------|-------------------|
-------------------|-------------------|-------------------|


       PM PM                       PM PM
  Q    S  S  Q.     Q       Q.     S  S  Q    E  E     E.  S Q    H
-------------------------|--------------------------|----------------------|
-------------------------|--------------------------|----------------------|
-------------------------|--------------------------|----------------------|
-------------------------|--5------------5----5-----|----------------------|
--3----------3------3----|--3------3--3--3----3--0--|--5---5-5----L--------|
--1----1--1--1------1----|--------------------------|--3---3-3----L--------|


                                PM PM
  E.  S Q    H           Q.     S  S  Q    E  E     W
----------------------|--------------------------|-------------------|
----------------------|--------------------------|-------------------|
----------------------|--------------------------|--5----------------|
----------------------|--5------------5----L-----|--3----------------|
--5---5-5----L--------|--3------3--3--3----L--0--|-------------------|
--3---3-3----L--------|--------------------------|-------------------|


   W                   W                    W
--------------------|-------------------|--------------------|
--------------------|-------------------|--------------------|
--12----------------|--9----------------|--10----------------|
--12----------------|--9----------------|--10----------------|
--10----------------|--7----------------|---8----------------|
--------------------|-------------------|--------------------|


  W                    W                   W
-------------------|--------------------|-------------------|
-------------------|--------------------|-------------------|
--5----------------|--12----------------|--9----------------|
--5----------------|--12----------------|--9----------------|
--3----------------|--10----------------|--7----------------|
-------------------|--------------------|-------------------|


   W                   W                   W
--------------------|-------------------|-------------------|
--------------------|-------------------|-------------------|
--10----------------|--5----------------|-------------------|
--10----------------|--5----------------|-------------------|
---8----------------|--3----------------|--3----------------|
--------------------|-------------------|--1----------------|


  H        Q    Q       W
---------------------|-------------------||
---------------------|-------------------||
---------------------|-------------------||
--5------------------|-------------------||
--3------------------|-------------------||
-----------0----1----|--3----------------||




==============================================================
==============================================================

                                Looks Like Love


Guitar 3


D#||-------|-------|-------|-------|-------|-------|-------|-------|-------|
A#||-------|-------|-------|-------|-------|-------|-------|-------|-------|
F#||-------|-------|-------|-------|-------|-------|-------|-------|-------|
C#||-------|-------|-------|-------|-------|-------|-------|-------|-------|
G#||-------|-------|-------|-------|-------|-------|-------|-------|-------|
D#||-------|-------|-------|-------|-------|-------|-------|-------|-------|


  H        Q    E    E     Q    E  E  E  E  S  S E     H        H
------------------------|-------------------3s-5-3--|--L-----------------|
----------------8s--10--|--8----------3-------------|--------------------|
------------------------|----------0-----0----------|--------------------|
----------------5s---7--|--5------------------------|--------------------|
------------------------|---------------------------|--------------------|
------------------------|---------------------------|--------------------|


  Q    E  E  E.  E.  E     H        H
-----------------0------|--------------------|-------|-------|-------|
-------------6----------|--------------------|-------|-------|-------|
----------0----------5--|--L-----------------|-------|-------|-------|
------------------------|--------------------|-------|-------|-------|
------------------------|--------------------|-------|-------|-------|
------------------------|--------------------|-------|-------|-------|


  E   E  E   E  E   E   Q       H        H
-----------------------------|--------------------|-----------|
-----13-----13-----13---L----|--------------------|-----------|
--0------0------0-------0----|--L-----------------|-----------|
-----------------------------|--------------------|-----------|
-----------------------------|--------------------|-----------|
-----------------------------|--------------------|-----------|


  |----3----|    |----3----|       |----3----|    |----3----|
  Q    Q    Q    Q    Q    Q       Q    Q    Q    Q    Q    Q
-----------------1----L----L----|------------0---------0---------|-------|
-------1------------------------|-------1---------1---------1----|-------|
------------2-------------------|--0-----------------------------|-------|
--3-----------------------------|--------------------------------|-------|
--------------------------------|--------------------------------|-------|
--------------------------------|--------------------------------|-------|


                                          Q.     Q    S   S Q
-------|-------|-------|-------|-------|-------------------------|
-------|-------|-------|-------|-------|--------------8s-10-8----|
-------|-------|-------|-------|-------|-------------------------|
-------|-------|-------|-------|-------|--------------5s--7-5----|
-------|-------|-------|-------|-------|-------------------------|
-------|-------|-------|-------|-------|--3------3---------------|


  H        H           Q.     E   E.  E.  E     H        H
--------------------|------------------------|--------------------|
--L-----------------|------------------------|--------------------|
--------------------|------------10---9---5--|--5-----------------|
--L-----------------|------------------------|--------------------|
--------------------|-------------8---7---3--|--3-----------------|
--------------------|--3------3--------------|--------------------|


  Q.     Q    S   S Q       H        H           Q.     E   E.  E.  E
-------------------------|--------------------|------------------------|
--------------8s-10-8----|--L-----------------|------------------------|
-------------------------|--------------------|------------10---9---5--|
--------------5s--7-5----|--L-----------------|------------------------|
-------------------------|--------------------|-------------8---7---3--|
--3------3---------------|--------------------|--3------3--------------|


  H        H
--------------------|-------|-------|-------||
--------------------|-------|-------|-------||
--5-----------------|-------|-------|-------||
--------------------|-------|-------|-------||
--3-----------------|-------|-------|-------||
--------------------|-------|-------|-------||




Duration Legend
---------------
W - whole
H - half
Q - quarter
E - 8th
S - 16th
T - 32nd
X - 64th
. - note dotted
|-n-|  - n-tuplets


Tablature Legend
----------------
L - tied note
x - dead note
g - grace note
(n) - ghost note
> - accentuded note
NH - natural harmonic
AH - artificial harmonic
TH - tapped harmonic
SH - semi harmonic
PH - pitch harmonic
h - hammer on
p - pull off
b - bend
br - bendRelease
pb - preBend
pbr - preBendRelease
brb - bendReleaseBend
\n/ - tremolo bar dip
\n - tremolo bar dive
-/n - tremolo bar Release up
/n\ - tremolo bar inverted dip
/n - tremolo bar return
-\n - tremolo bar Release down
S - shift slide
s - legato slide
/ -  slide into from below or out of upwards
\ -  slide into from above or out of downwards
~ - vibrato
W - wide vibrato
tr - trill
TP - tremolo picking
T - tapping
S - slap
P - pop
< - fade in
^ - brush up
v - brush down
Tap to rate this tab
# A B C D E F G H I J K L M N O P Q R S T U V W X Y Z