Song name
# A B C D E F G H I J K L M N O P Q R S T U V W X Y Z

Wilkinson - Afterglow tab

Afterglow
Wilkinson

E|-------------------|------------------|------------------|
B|--0--0--0--0--0----|-0--0--0--0--0----|--0--0--0--0--0---|
G|-----------------2-|----------------2-|------------------|
D|-------------------|------------------|------------------|
A|-------------------|------------------|------------------|
E|-------------------|------------------|------------------|



E|-------------------|------------------|------------------|
B|---3--3--3--3--3---|-7-----5----------|-7-----5----------|
G|-------------------|----7-----4--2--4-|----7-----4--2--4-|
D|-------------------|------------------|------------------|
A|-------------------|------------------|------------------|
E|-------------------|------------------|------------------|



E|----------------|----------------|
B|-----------5----|----------5-----|
G|-----7--7-------|----7--7--------|
D|----------------|----------------| Music Starts Here
A|----------------|----------------|
E|----------------|----------------|
Tap to rate this tab
# A B C D E F G H I J K L M N O P Q R S T U V W X Y Z