Guitaretab - guitar tabs
Song name
# A B C D E F G H I J K L M N O P Q R S T U V W X Y Z

Will And The People - Weirdos tab

----------------------------------------------------------------------------
WEIRDOS- WILL AND THE PEOPLE
----------------------------------------------------------------------------
Tabbed by; McBird182

Standard tuning.
There are no other Will and the people tabs on here... which is just plain wrong! Here 
the first one! and my first ever tab! This song is fine to play on power chords in verses 
bridges but Barre chords in the chorus sound better and is how Will plays it acoustically.
Enjoy.


* = deaden all strings


Verse 1
E|-----------------------------------------------------|
B|-----------------------------------------------------|
G|-8-8-8-8---------------------------------------------|
D|-8-8-8-8------9-9-9-9------4-4-4-4---3-3-3-3---------|
A|-6-6-6-6------9-9-9-9------4-4-4-4---3-3-3-3---------|
E|--------------7-7-7-7------2-2-2-2---1-1-1-1---x5----|
     *   *      *   *          *   *     *   *
   Smoking the bamboo in a daze, ----- yeah yeah yeah
   This is an absolute outrage, ------ yeah yeah yeah
   No matter what the papers say, ---- yeah yeah yeah
   This is the way the children play,  yeah yeah yeah
   This is the way the children play.


Bridge

E|---------------------------------------------------------|
B|---------------------------------------------------------|
G|-------------------------------11-11-11-11-----8-8-8-8---|
D|-9-9--------------11-11--------11-11-11-11-----8-8-8-8---|
A|-9-9--------------11-11--------9--9--9--9------6-6-6-6---|
E|-7-7--------------9--9-----------------------------------|
      I donít wanna cry like that cat stuck up a tree.

E|------------------------------------------------------------|
B|------------------------------------------------------------|
G|--------------------------------7-7-7-7-----------8-8-8-8---|
D|-9-9--------------11-11---------7-7-7-7-----------8-8-8-8---|
A|-9-9--------------11-11---------5-5-5-5-----------6-6-6-6---|
E|-7-7--------------9--9--------------------------------------|
      I donít wanna die like that smack-head on the jubilee.

E|------------------------------------------|
B|------------------------------------------|
G|-11-11-11-11-10-10-10-10-8-8-8-8-6-6-6-6--|
D|-11-11-11-11-10-10-10-10-8-8-8-8-6-6-6-6--|
A|-9--9--9--9--8--8--8--8--6-6-6-6-4-4-4-4--|
E|------------------------------------------|
   I......................................


Chorus

E|-------------------------------------------------------------------|
B|-------------------------------------------------------------------|
G|-3---------------------------------8-------------------------------|
D|-4---------------------------------9-------------------------------|
A|-4---------------------------------9-------------------------------|
E|-2-x16-----------------------------7-x16---------------------------|
   Why donít you, help these weirdos out yourselves (out yourselves)


E|--------------------------------------------|
B|-7------------------------------------------|
G|-8-------------------------8---10----11-----|
D|-8-------------------------9---11----11-----|
A|-6-x10---------------------9---11----9-x16--|
E|---------------------------7---9------------|
   Hold them close, So that they donít cry


Verse 2

E|-----------------------------------------------------|
B|-----------------------------------------------------|
G|-8-8-8-8---------------------------------------------|
D|-8-8-8-8------9-9-9-9------4-4-4-4---3-3-3-3---------|
A|-6-6-6-6------9-9-9-9------4-4-4-4---3-3-3-3---------|
E|--------------7-7-7-7------2-2-2-2---1-1-1-1---x5----|
     *   *      *   *          *   *     *   *
   So why did you come to my gig?, --- yeah yeah yeah
   You are a little Gucci pig, ------- yeah yeah yeah
   No matter what the papers say, ---- yeah yeah yeah
   This is the way the children play,  yeah yeah yeah
   This is the way the children play


Bridge-

E|---------------------------------------------------------|
B|---------------------------------------------------------|
G|-------------------------------11-11-11-11-----8-8-8-8---|
D|-9-9--------------11-11--------11-11-11-11-----8-8-8-8---|
A|-9-9--------------11-11--------9--9--9--9------6-6-6-6---|
E|-7-7--------------9--9-----------------------------------|
      I donít wanna cry like that cat stuck up a tree.
[ Tab from: http://www.guitaretab.com/w/will-and-the-people/181278.html ]
E|------------------------------------------------------------|
B|------------------------------------------------------------|
G|--------------------------------7-7-7-7-----------8-8-8-8---|
D|-9-9--------------11-11---------7-7-7-7-----------8-8-8-8---|
A|-9-9--------------11-11---------5-5-5-5-----------6-6-6-6---|
E|-7-7--------------9--9--------------------------------------|
      I donít wanna die like that smack-head on the jubilee.


E|------------------------------------------|
B|------------------------------------------|
G|-11-11-11-11-10-10-10-10-8-8-8-8-6-6-6-6--|
D|-11-11-11-11-10-10-10-10-8-8-8-8-6-6-6-6--|
A|-9--9--9--9--8--8--8--8--6-6-6-6-4-4-4-4--|
E|------------------------------------------|
   I......................................


Chorus-

E|-------------------------------------------------------------------|
B|-------------------------------------------------------------------|
G|-3---------------------------------8-------------------------------|
D|-4---------------------------------9-------------------------------|
A|-4---------------------------------9-------------------------------|
E|-2-x16-----------------------------7-x16---------------------------|
   Why donít you, help these weirdos out yourselves (out yourselves)


E|--------------------------------------------|
B|-7------------------------------------------|
G|-8-------------------------8---10----11-----|
D|-8-------------------------9---11----11-----|
A|-6-x10---------------------9---11----9-x16--|
E|---------------------------7---9------------|
   Hold them close, So that they donít cry

E|-------------------------------------------------------------------|
B|-------------------------------------------------------------------|
G|-3---------------------------------8-------------------------------|
D|-4---------------------------------9-------------------------------|
A|-4---------------------------------9-------------------------------|
E|-2-x16-----------------------------7-x16---------------------------|
   Why donít you, help these weirdos mental health (mental health)


E|--------------------------------------------|
B|-7------------------------------------------|
G|-8-------------------------8---10----11-----|
D|-8-------------------------9---11----11-----|
A|-6-x10---------------------9---11----9-x16--|
E|---------------------------7---9------------|
   hold them close, so that they donít die.


Middle 8/verse 3-

E|-----------------------------------------------------|
B|-----------------------------------------------------|
G|-8-8-8-8---------------------------------------------|
D|-8-8-8-8------9-9-9-9------4-4-4-4----3-3-3-3--------|
A|-6-6-6-6------9-9-9-9------4-4-4-4----3-3-3-3--------|
E|--------------7-7-7-7------2-2-2-2----1-1-1-1--------|
   *   *        *   *        *   *      *   *
   Babadaba     babadaba     babadabada weirdos

E|-----------------------------------------------------|
B|-----------------------------------------------------|
G|-8-8-8-8---------------------------------------------|
D|-8-8-8-8------9-9-9-9------4-4-4-4----3-3-3-3--------|
A|-6-6-6-6------9-9-9-9------4-4-4-4----3-3-3-3--------|
E|--------------7-7-7-7------2-2-2-2----1-1-1-1--------|
   *   *        *   *        *   *      *   *
   shodododo    dodododo    dododododo  weirdos

E|-----------------------------------------------------|
B|-----------------------------------------------------|
G|-8-8-8-8---------------------------------------------|
D|-8-8-8-8------9-9-9-9------4-4-4-4----3-3-3-3--------|
A|-6-6-6-6------9-9-9-9------4-4-4-4----3-3-3-3--------|
E|--------------7-7-7-7------2-2-2-2----1-1-1-1--------|
   *   *        *   *        *   *      *   *
   Babadaba     babadaba     babadabada weirdos

E|------------------------------------------------------|
B|------------------------------------------------------|
G|-8-8-8-8----------------------------------------------|
D|-8-8-8-8------9-9-9-9------4-4-4-4----3---------------|
A|-6-6-6-6------9-9-9-9------4-4-4-4----3---------------|
E|--------------7-7-7-7------2-2-2-2----1---------------|
   *   *        *   *        *   *
   shodododo    dodododo     do do do dooo


Bridge-

I donít wanna cry like that cat stuck up a tree.
I donít wanna die like that smack-head on the jubilee.

I...................................... x2


Final chorus-

Why donít you, help these weirdos out yourselves.
Yeah hold them close
So that they donít cry
Yeah why donít you, help these weirdos metal heath
hold them close, so that they donít die.

Why donít you help these weirdos out yourselves.
Yeah hold them close
So that they donít die.

official site- www.myspace.com/willandthepeople  (signed to RCA)
Related for Weirdos tab