Guitaretab - guitar tabs
Song name
# A B C D E F G H I J K L M N O P Q R S T U V W X Y Z

Will And The People - Knocking tab

Intro:
G|-----------------------------------------------------|
D|------------5-67--5-5------------------5-67-5-5------|
A|---5--7--9------------8-6----45-67-89-----------8-6--|
E|7--------------------------7-------------------------|

Verse1:
G|---------------------------|
D|------------5-67--5-5------|
A|---5--7--9------------8-6--|x2
E|7--------------------------|

Pre-Chorus:
G|----------7--------|
D|-------------------|
A|5-5--55-7-------5--|x2
E|------------7--7---|

G|---------7-----------------------|
D|----------7----------------5-76--|
A|5-5--55-7-------5-7--7--9--------|
E|------------7--7-----------------|

Chorus:
G|----------------------------------------------------------|
D|-----------------------------5-------------------------5--|
A|--------5--55--7--65-56--7--7-----------5--55--7---7--7---|
E|3--34-5-------------------------3--45-5-------------------|

breakdown:
G|---------------------------|
D|-------------5--5--5-5-5---|
A|---45-67-89-------------7--|x2
E|7--------------------------|

Verse2:
G|---------------------------|
D|------------5-67--5-5------|
A|---5--7--9------------8-6--|x2
E|7--------------------------|

Pre-Chorus:
G|----------7--------|
D|-------------------|
A|5-5--55-7-------5--|x2
E|------------7--7---|
[ Tab from: http://www.guitaretab.com/w/will-and-the-people/185753.html ]
G|---------7-----------------------|
D|----------7----------------5-76--|
A|5-5--55-7-------5-7--7--9--------|
E|------------7--7-----------------|

Chorus:
G|----------------------------------------------------------|
D|-----------------------------5-------------------------5--|
A|--------5--55--7--65-56--7--7-----------5--55--7---7--7---|
E|3--34-5-------------------------3--34-5-------------------|

breakdown:
G|---------------------------|
D|-------------5--5--5-5-5---|
A|---45-67-89-------------7--|x2
E|7--------------------------|

Pre-Chorus:
G|----------7--------|
D|-------------------|
A|5-5--55-7-------5--|x2
E|------------7--7---|

G|---------7-----------------------|
D|----------7----------------5-76--|
A|5-5--55-7-------5-7--7--9--------|
E|------------7--7-----------------|

Chorus:
G|---------------------------------------------------------|
D|-----------------------------5---------------------------|
A|--------5--55--7--65-56--7--7-----------5--55--7---7--7--|
E|3--34-5-------------------------3--34-5------------------|

G|----------------------------------------------------------|
D|-----------------------------5-------------------------5--|
A|--------5--55--7--65-56--7--7-----------5--55--7---7--7---|
E|3--34-5-------------------------3--34-5-------------------|

Outro:
G|---------------------------|
D|-------------5--5--5-5-5---|
A|---45-67-89-------------7--|x2
E|7--------------------------|

Please Rate :)
Related for Knocking tab
×
Knocking