Song name
# A B C D E F G H I J K L M N O P Q R S T U V W X Y Z

Will And The People - Troubled Pro tab

My first tab, pretty accurate I believe. Just saw no tab for the intro and it sounded 
simple, so here we go.

e|----------------------------------------------------------------------------|
B|----------------------------------------------------------------------------|
G|------4-4-4-4-4-----------------------------------------------4----4-4-4----|
D|---2---------------5----5-5----------------------7---5-5-5------------------|
A|----------------3-------------------5-5-5-5-5-5----6--------7---------------|
E|-------------------------------3--------------------------------------------|


e|---------------------------------------------------------------------------|
B|---------------------------------------------------------------------------|
G|---------------------------------------------------------------------------|
D|----5---5-5-----------------------1-1-1-2----------------------------------|
A|-3----------------------5--------------------------------------------------|
E|--------------3------3-----------------------------------------------------|
                                                   I wake up....


That's all I got for tonight :P.... Email me at werwer126@gmail.com for changes or whatever...
Tap to rate this tab
 
# A B C D E F G H I J K L M N O P Q R S T U V W X Y Z