Song name
# A B C D E F G H I J K L M N O P Q R S T U V W X Y Z

Will Haven - Fresno tab

Fresno
Will Haven
WHVN

tabber: mon.nom.est.thomas.martin@gmail.com

Tuning: B,F#,B,E,G#,C#

Riff 1:
|---------------------------------------|
|---------------------------------------|
|---------------------------------------|
|---------------------------------------|
|---------------------------------------|
|---1121121121121121112112112112/4444---|

ok, it's hard to hear the riff
to understand the dynamic:
|---1-21-21-21-21-211-21-21-21-2/4444---|


Riff 2:
|------------------------------------|
|---888888888888888888888------------|
|---666666666666666666666--------6---|
|---555555555555555555555---4----5---|
|---444444444444444444444-0-4--0-0---|
|-------------------------0-4--0-0---|
pm:                       .    .
 "Can you dig the moonlight?"
|----------------|
|----------------|
|----------------|
|---00--00--00---|
|---00--00--00---|
|---00--00--00---|

Riff 3: (w/ flanger)
|-------------------------------|------------------------|
|-------------------------------|------------------------|
|---5555555577777777-7----------|---5555555544444444-4---|
|------------------------(x3)---|------------------------|
|---3333333355555555-5----------|---3333333322222222-2---|
|--------------------0----------|--------------------0---|

Riff 4:
|---------------------------------|
|---------------------------------|
|---------------------------------|
|---------------------------------|
|---0-5p4-0-2h4--5p4-0-2h4--4h5---|
|---0-5p4-0-2h4--5p4-0-2h4--4h5---|

Riff 5:
|---------------------------------|
|---------------------------------|
|---------------------------------|
|---------------------------------|
|---0-3p2-0-1h2--3p2-0-1h2--2h3---|
|---0-3p2-0-1h2--3p2-0-1h2--2h3---|

Tap to rate this tab
# A B C D E F G H I J K L M N O P Q R S T U V W X Y Z