Song name
# A B C D E F G H I J K L M N O P Q R S T U V W X Y Z

Will Haven - Dolph Lundgren tab

Dolph Lundgren
Will Haven
Carpe Diem

tabbed by mon.nom.est.thomas.martin@gmail.com

Tuning: B,F#,B,E,G#,C#

Riff 1:
|--------------------------|
|--------------------------|
|---------------------6----|
|--------------------------|
|---------------------4----|
|---0-1-2-0-4--0-1--0------|

Riff 2:
|---------------------------------------|
|---------------------------------------|
|-----------------------------------6---|
|---------------------------------------|
|-----------------------------------4---|
|---00-000-000-00-1---00-000-000-00-----|

Riff 3:
|------------------------|
|------------------------|
|---66-66-66-------------|
|------------------------|
|---44-44-44-0-1-0-------|
|------------0-1-0-10\---|

Riff 4:
|--------------------|
|--------------------|
|---5-5--------------|
|---4-4--------------|
|---4-4-0000000000---|
|---4-4-0000000000---|
 pm:    ..........

Riff 5:
|------------------|
|-----0-----0------|
|-----0-----0------|
|-----0-----0------|
|------------------|
|---1---/3----/6\--|

Riff 6:
|---------------------|
|---------0-----------|
|-----0---0-----------|
|-----0---0-----------|
|---------------------|
|---1----/5--0-1p0----|

Riff 7:
|------------------------|
|------------------------|
|------------------------|
|------------------------|
|------------------------|
|---0---6--5--3--2-3-1---|
Tap to rate this tab
 
# A B C D E F G H I J K L M N O P Q R S T U V W X Y Z