Song name
# A B C D E F G H I J K L M N O P Q R S T U V W X Y Z

Will Hoge - Even If It Breaks Your Heart chords

Highlighted       Show chord diagrams
----------------------------------------------------------------------------
EVEN IF IT BREAKS YOUR HEART - Will Hoge
----------------------------------------------------------------------------
Tabbed By: Alex Keimach
E-mail: wordsEvadeMe@gmail.com
Based on Will's live performance: http://www.youtube.com/watch?v=hfYBvtrTsts
Tuning: Standard
Note: This is my first tab, please rate!
----------------------------------------------------------------------------

Chords:

      Am    G     C    F/E    Cmaj9/E   Gadd4
e|----0-----3-----0-----0--------0--------3-----|
B|----1-----3-----1-----1--------1--------1-----|
G|----2-----0-----0-----2--------0--------0-----|
D|----2-----0-----2-----3--------0--------0-----|
A|----0-----2-----3-----3--------2--------2-----|
E|----0-----3-----0-----0--------0--------3-----|

Intro (palm muted):

     Am(x3)   G(x5)             C(x4)       F/E(x4)
e|---0--0--0--3--3--3--3--3--|--0--0--0--0--0--0--0--0---|
B|---1--1--1--3--3--3--3--3--|--1--1--1--1--1--1--1--1---|
G|---2--2--2--0--0--0--0--0--|--0--0--0--0--2--2--2--2---|
D|---2--2--2--0--0--0--0--0--|--2--2--2--2--3--3--3--3---|
A|---0--0--0--2--2--2--2--2--|--3--3--3--3--3--3--3--3---|
E|---0--0--0--3--3--3--3--3--|--0--0--0--0--0--0--0--0---|

    F/E(x3)  C(x3)  Cmaj9/E(x2) Gadd4(x8)
e|---0--0--0--0--0--0--0--0--|--3--3--3--3--3--3--3--3---|
B|---1--1--1--1--1--1--1--1--|--1--1--1--1--1--1--1--1---|
G|---2--2--2--0--0--0--0--0--|--0--0--0--0--0--0--0--0---|
D|---3--3--3--2--2--2--0--0--|--0--0--0--0--0--0--0--0---|
A|---3--3--3--3--3--3--2--2--|--2--2--2--2--2--2--2--2---|
E|---0--0--0--0--0--0--0--0--|--3--3--3--3--3--3--3--3---|

Verse (palm muted / same as intro):

     Way      back on the       radio      dial
e|---0--0--0--3--3--3--3--3--|--0--0--0--0--0--0--0--0---|
B|---1--1--1--3--3--3--3--3--|--1--1--1--1--1--1--1--1---|
G|---2--2--2--0--0--0--0--0--|--0--0--0--0--2--2--2--2---|
D|---2--2--2--0--0--0--0--0--|--2--2--2--2--3--3--3--3---|
A|---0--0--0--2--2--2--2--2--|--3--3--3--3--3--3--3--3---|
E|---0--0--0--3--3--3--3--3--|--0--0--0--0--0--0--0--0---|

   a fire got lit   inside a    bright eyed child...
e|---0--0--0--0--0--0--0--0--|--3--3--3--3--3--3--3--3---|
B|---1--1--1--1--1--1--1--1--|--1--1--1--1--1--1--1--1---|
G|---2--2--2--0--0--0--0--0--|--0--0--0--0--0--0--0--0---|
D|---3--3--3--2--2--2--0--0--|--0--0--0--0--0--0--0--0---|
A|---3--3--3--3--3--3--2--2--|--2--2--2--2--2--2--2--2---|
E|---0--0--0--0--0--0--0--0--|--3--3--3--3--3--3--3--3---|

Chorus (open strumming):
   Whoa   -   oah         I   can hear 'em playing
   F/E(D)    C(D)      Am(U  U  D  U)     G(D  U  D  U)
e|---0--------0-----------0--|-----0--0--0--3--3--3--3---|
B|---1--------1-----------1--|-----1--1--1--3--3--3--3---|
G|---2--------0-----------2--|-----2--2--2--0--0--0--0---|
D|---3--------2-----------2--|-----2--2--2--0--0--0--0---|
A|---3--------3-----------0--|-----0--0--0--2--2--2--2---|
E|---0--------0-----------0--|-----0--0--0--3--3--3--3---|

etc... if you need help with rhythm watch the YouTube video and play along with the song...

Whole Song (chords):
Intro(x2): Am G C F/E  F/E C Gmaj9/E Gadd4


Verse 1:

Am  G           C     F/E
Way back on the radio dial
  F/E      C    Gmaj9/E   Gadd4
A fire got lit inside a   bright eyed child
Am    G         C                   F/E
Every note just wrapped around your soul
     F/E          C          Gmaj9/E   Gadd4
From steel guitar to Memphis all the   way to rock and roll


Chorus:

F~   C~  Am             G
Whoa oah I can hear 'em saying
F              C            Am              G
I can hear the ringing of a beat up old guitar
F~   C~  Am             G
Woah oah I can hear 'em saying
F       C             G                 C
Keep on dreaming even if it breaks your heart


Verse 2:

Am  G    C               F/E
Downtown where I used to wander
F/E        C            Gmaj9/E   Gadd4
Old enough to get there but too   young to get inside
Am G    C                F/E
I would stand out on the sidewalk
F/E       C         Gmaj9/E   Gadd4
Listen to the music playing   every Friday night


Chorus:

F~   C~  Am             G
Whoa oah I can hear 'em playing
F              C            Am              G
I can hear the ringing of a beat up old guitar
F~   C~  Am             G
Woah oah I can hear 'em saying
F       C             C                 G
Keep on dreaming even if it breaks your heart


Verse 3:

Am   G      C                F/E
Some dreams stay with you forever
F/E       C         Gmaj9/E    Gadd4
Drag you around and lead you   back to where you were
Am   G      C               F/E
Some dreams keep on getting better
F/E         C         Gmaj9/E  Gadd4
Got to keep believing if you   want to know for sure


Chorus(x2):

F~   C~  Am             G
Whoa oah I can hear 'em saying
F              C            Am              G
I can hear the ringing of a beat up old guitar
F~   C~  Am             G
Woah oah I can hear 'em saying
F       C             C                 G
Keep on dreaming even if it breaks your heart
Tap to rate this tab
 
# A B C D E F G H I J K L M N O P Q R S T U V W X Y Z