Song name
# A B C D E F G H I J K L M N O P Q R S T U V W X Y Z

Will Hoge - Tv Set tab

Highlighted       Show chord diagrams
I am mostly sure that everything on this tab is right
(i dont kno the solo yet but if i can get it i will post it)
Capo on the 2nd fret

Intro: Guitar 1
------------------2--33-|
------------------3--33-|
------------------2--00-|
-2----------------0--00-|
-0-----0-4--------0--00-|
---0-3-----0-3-0--0--33-|

Intro: Guitar 2
------------------------|
------------------------|
------------------------|
------------------2-----|
---------5--------2-----|
-5-0-3-5---5-3-0--0--33-|

Chorus:
VERSE 1
B
Hear me knocking on your door
A
Hear me knocking on your door
F#
Let me in I'll be good just like I was before
F#
Hear me knocking on your door

(then play the intro)


B
Now would you let me come on in
A
Let me come on in
F#
Dont you know i just want to be your friend
F#
know wont you let me come on in

(in between the solo)
Em                               Then slide down E and A strings
I'll do more than hold your hand if you'd just let me be your man

May I fix your TV set
B
Let me fix your TV set
A
I'll show you stations you ain't seen yet
F#
Let me fix your TV set
F#


At the Scream
B A Ad G
B A Ad G F#
Tap to rate this tab
# A B C D E F G H I J K L M N O P Q R S T U V W X Y Z