Song name
# A B C D E F G H I J K L M N O P Q R S T U V W X Y Z

Will Hoge - Man Who Killed Love tab

Help us improve GuitareTab! Take a short survey!
Will Hoge
The Man Who Killed Love

I am almost 100% sure this is it i just cant find out the solo piece to it
This is in normal tuning

intro/verse:
e-----------------------------------------------------------|
b-----------------------------------------------------------|
g-----------------------------------------------------------|
d-------7p-5-----5----7b------------7p-5------5-------------|
a-------------7----------------------------7----------------|
E--7-7------------------------7-7---------------------------|

for the verse part palm mute it for the first 3 measures then play it normal for the 
measure then it will sound like it

Chorse:
---------------------------------------------------|
---------------------------------------------------|
---------------------------------------------------|
-9-9-9-9-9-9-9-8-7-7-7-7-7-7-7------4-----2--------|
-9-9-9-9-9-9-9-8-7-7-7-7-7-7-7------4-----2--------|
-7-7-7-7-7-7-7-6-5-5-5-5-5-5-5------2-----0--------|
Related for Man Who Killed Love tab