Song name
# A B C D E F G H I J K L M N O P Q R S T U V W X Y Z

Will-i-am - Its A New Day tab

Highlighted       Show chord diagrams
-------------------------------------------------------------------------------
			     It's a New Day - Will.I.Am
-------------------------------------------------------------------------------
Tabbed by: Nyeng
Email: nyengg@hotmail.com

Tuning:E A D G B E (Standard)

This is my first tab, so go easy on me. The first version kind of sounded lower than the 
song.

    C5       D5     E5        A5
E|----------------------------------------------------|
A|--4--------6------8---------------------------------|
D|--5--------7------9---------2-----------------------|
G|--5--------7------9---------2-----------------------|
B|--3--------5------7---------0-----------------------|
E|----------------------------------------------------|

    x8      x8      x8        x8

That's basically it for the whole song. Figure out the strumming yourself :P. Oh yeah, 
also some rhythm fills in between A5 and C5.  I usually use this rhythm fill :

            A5              C5
E|-----------------------------------|
A|--------------------------4--------|
D|----------2---------------5--------|
G|----------2---------3-----5--------|
B|----------0----3/5--------3--------|
E|-----------------------------------|

           x8               x8


But there is one clean part :

    You,     -and me,    -together

E|-----------------------------|
A|---6----------4--------------|
D|---7----------5-----------2--|
G|---7----------5-----------2--|
B|---5----------3-----------0--|
E|-----------------------------|

Have fun!

| /  slide up
| \  slide down
| h  hammer-on
| p  pull-off
| ~  vibrato
| +  harmonic
| x  Mute note
===============================================================================
Tap to rate this tab
# A B C D E F G H I J K L M N O P Q R S T U V W X Y Z