Song name
# A B C D E F G H I J K L M N O P Q R S T U V W X Y Z

Will I Am - Scream And Shout tab


E|-------------------------------------------------------------------------------------|
H|-------------------------------------------------------------------------------------|
G|-------------------------------------------------------------------------------------|
D|-------------------------------------------------------------------------------------|
A|--------------------3--1-1-1-1-1-1-1-1--------------------1--3-3-3-3-3-3-3-3---------|
E|--3-3-3-3-3-3-3-3-----------------------1-1-1-1-1-1-1-1------------------------------|



E|-------------------------------------------------------------------------------------|
H|-------------------------------------------------------------------------------------|
G|-------------------------------------------------------------------------------------|
D|-------------------------------------------------------------------------------------|
A|-------------------------------------------------------------------------------------|
E|---3-3-3-3-3-3--5/6-6-5------3-3-3-3-3-3--5/6-6-5------3-3-3-3-3-3--5/6-6-5----------|






E|-------------------------------------------------------------------------------------|
H|-------------------------------------------------------------------------------------|
G|---------------------3-3-3-3-3-3-------------------------5-5-5-5-5-5-----------------|
D|-5-5-5-5-5-5---------3-3-3-3-3-3----3-3-3-3-3-3----------5-5-5-5-5-5-----------------|
A|-5-5-5-5-5-5---------1-1-1-1-1-1----3-3-3-3-3-3----------3-3-3-3-3-3-----------------|
E|-3-3-3-3-3-3------------------------1-1-1-1-1-1--------------------------------------|




E|-------------------------------------------------------------------------------------|
H|-------------------------------------------------------------------------------------|
G|-------------------------------------------------------------------------------------|
D|-5-5-5-5------7-8-7-----5-5-5-5-----7-8-7-------5-5-5-5-----7-8-7--------------------|
A|-5-5-5-5------7-8-7-----5-5-5-5-----7-8-7-------5-5-5-5-----7-8-7--------------------|
E|-3-3-3-3------5-6-5-----3-3-3-3-----5-6-5-------3-3-3-3-----5-6-5--------------------|




Tap to rate this tab
# A B C D E F G H I J K L M N O P Q R S T U V W X Y Z