Guitaretab - guitar tabs
Song name
# A B C D E F G H I J K L M N O P Q R S T U V W X Y Z

Will Smith - Nod Your Head tab

Nod Your Head
Will Smith

Tabbed by Munkee
Good riff to play

(play fast throughout song) 
E--------------------------------------------------------
B--------------------------------------------------------
G--------------------------------------------------------
D--------------------------------------------------------
AŚ3-4-3----------------------3-4-3----------------------
E---------6----3---1--2--3----------6---3---1--2--3------
[ Tab from: http://www.guitaretab.com/w/will-smith/31001.html ]
E--------------------------------------------------------
B--------------------------------------------------------
G------------------------------------------8---10--------
D--3-4--3-------------------3-4-3----------8---10--------
A----------6---3--1--2--3----------6---3---6---8---------
E--------------------------------------------------------

E--------------------------------------------------------
B--------------------------------------------------------
G--------------------------------------------------------
D--------------------------------------------------------
AŚ3-4-3----------------------3-4-3----------------------
E---------6----3---1--2--3----------6---3---1--2--3------

E--------------------------------------------------------
B--------------------------------------------------------
G-----------------------------5---7---8--10--------------
D--3-4--3---------------------5---7---8--10--------------
A----------6---3--1--2--3-----3---5---6--8---------------
E--------------------------------------------------------

Repeat until end
Related for Nod Your Head tab