Guitaretab - guitar tabs
Song name
# A B C D E F G H I J K L M N O P Q R S T U V W X Y Z

Will Smith - Black Suits Comin tab

Artist: Will Smith
Song Name: Blck suits coming (nod your head)

I dont have my electric near by but it sounds kinda right on the acoustic
hope u enjoy!

Chords:none
                     (riff 1)
e|-----------------------------------------|
B|-----------------------------------------|
G|-----------------------------------------|
D|-----------------------------------------|
A|-3(h)4(p)-1------------------------------|
E|------------3-----1(h)2(h)3---1(h)2(h)3--|

Repeat this as many times as the song goes then
move to riff 2 ( i think its only twice before you move on two riff two)
[ Tab from: http://www.guitaretab.com/w/will-smith/44265.html ]
Chords:none
                     (Riff 2)
e|----------------------------------------------------------------|
B|----------------------------------------------------------------|
G|----------------------------------------------------------------|
D|-3(h)4(p)-1------------------------------------5---7------------|
A|-------------3---1(h)2(h)3---1(h)2(h)3---------3---5------------|
E|----------------------------------------------------------------|

Chords:none
                     (Riff 3)
e|----------------------------------------------------------------|
B|----------------------------------------------------------------|
G|-------------------------------------------------------3--3-----|
D|-3(h)4(p)-1------------------------------------5---7---1--5-----|
A|-------------3---1(h)2(h)3---1(h)2(h)3---------3---5------------|
E|----------------------------------------------------------------|

Riff three is the same but builds up to a climax with four 5th's

After this back to riff one, so on........

i cant get the intro but if anyone has some sort
 of idea, please E-mail me at...................gibsonjones@hotmail.com
Related for Black Suits Comin tab