Guitaretab - guitar tabs
Song name
# A B C D E F G H I J K L M N O P Q R S T U V W X Y Z

Will Smith - Fresh Prince Of Bel Air tab

Now this is a tab of all about how you can play this theme song all around town.
Lemme take a minute, just sit right there - and I'll tell you how to play the theme song for
the Fresh Prince of Bel Air.

Simple song - make sure you get the rhythm right.

The whole song is pretty much this bassline:

e|-----------------------------------------------------------------|
B|-----------------------------------------------------------------|
G|-----------------------------------------------------------------|
D|-----------------------------------------------------------------|
A|--6------6--------4-6------6--------4-6--------------------------|
E|------x-----6-6-x-------x-----6-6-x------------------------------|


With the occasional:
[ Tab from: http://www.guitaretab.com/w/will-smith/95815.html ]
e|-----------------------------------------------------------------|
B|-----------------------------------------------------------------|
G|-----------------------------------------------------------------|
D|-----------------------------------------------------------------|
A|--4-6------------------------------------------------------------|
E|-----------------------------------------------------------------|


Now, this is kind of boring, eh?  Not much fun for an acoustic (or electric for that matter).
 Thus, you can play the chords instead:

e|-----------------------------------------------------------------|
B|--7---x--7----------7---x--7----------7--------------------------|
G|--8---x--8--6-6-x-6-8---x--8--6-6-x-6-8--------------------------|
D|--8---x--8--8-8-x-6-8---x--8--8-8-x-6-8--------------------------|
A|--6---x--6--8-8-X-4-6---x--6--8-8-X-4-6--------------------------|
E|------------6-6-x-------------6-6-x------------------------------|


With the likewise occasional:

e|-----------------------------------------------------------------|
B|----7------------------------------------------------------------|
G|--6-8------------------------------------------------------------|
D|--6-8------------------------------------------------------------|
A|--4-6------------------------------------------------------------|
E|-----------------------------------------------------------------|


This song's also fun to solo to.  Improvise in the key of D# minor.

Hope you enjoyed.

- Yawn
Related for Fresh Prince Of Bel Air tab