Song name
# A B C D E F G H I J K L M N O P Q R S T U V W X Y Z

Willem De Fesch - Minuet In Dm tab

#----------------------------------PLEASE NOTE--------------------------------#
#This file is the author's own work and represents their interpretation of the#
#song. You may only use this file for private study, scholarship, or research.#
#-----------------------------------------------------------------------------#

Minuet

Willem de Fesch (William Defesch) (1697-1758)

[5th bar: open A changed from B on 2nd fret - Weed 3/12/00]


Play in standard tuning, the time signature is 3/4


  |       |       |        |       |       |        |       |       |
|-----0---1-------0-------|--------1-------5-------|1-------0---------------|
|-3-----------------------|3-----------------------|----------------3-------|
|*------------------------|------------------------|--------0---------------|
|*0-----------------------|0-----------------------|0-----------------------|
|-------------------------|------------------------|------------------------|
|-------------------------|------------------------|------------------------|


 |       |       |        |       |       |        |       |       |
|------------------------|1-------0---------------|------------------------|
|2---0-------------------|----------------3-------|1-----------------------|
|--------2---0-----------|------------------------|--------3-------2-------|
|----------------3---2---|0-----------------------|2---------------3-------|
|0-----------------------|------------------------|------------------------|
|------------------------|------------------------|------------------------|


 |       |       |        |       |       |
|------------------------|------------------------||
|------------------------|------------------------||
|3-------0---------------|--------2---0----------*||
|------------------------|3---------------3---2--*||
|1-------3---------------|------------------------||
|------------------------|1-----------------------||


  |       |       |        |       |       |
|-------------------------|------------------------|
|---------1-------1-------|1-----------------------|
|*2---3-------------------|--------3---2---3-------|
|*0-----------------------|------------------------|
|-------------------------|------------------------|
|-------------------------|3-----------------------|


 |       |       |        |       |       |        |       |       |
|------------------------|------------------------|------------------------|
|------------------------|------------------------|3-------1---------------|
|0---2---3-------3-------|3-------2---0---2-------|------------------------|
|------------------------|------------------------|------------------------|
|3-----------------------|------------------------|------------------------|
|------------------------|1-----------------------|2-----------------------|


 |       |       |        |       |       |        |       |       |
|----------------0---1---|0-----------------------|--------0---------------|
|0-------1---3-----------|--------3---------------|1---3-------------------|
|------------------------|1-----------------------|--------0---------------|
|------------------------|------------------------|------------3---2---0---|
|------------------------|------------------------|------------------------|
|3-----------------------|------------------------|------------------------|


 |       |       |        |       |       |        |       |       |
|----3---1-------0-------|5-----------------------|------------------------|
|------------------------|------------------------|------------------------|
|2-----------------------|--------2-------0-------|----0---2---------------|
|--------0-------2-------|3---------------2-------|3-----------------------|
|3-----------------------|------------------------|5-------0-------0-------|
|------------------------|------------------------|------------------------|


 |       |       |
|------------------------||
|------------------------||
|-----------------------*||
|0----------------------*||
|------------------------||
|------------------------||



>From : melesambo@hotmail.com

Tap to rate this tab
# A B C D E F G H I J K L M N O P Q R S T U V W X Y Z