Song name
# A B C D E F G H I J K L M N O P Q R S T U V W X Y Z

William Bonney - Drug Lord tab

William Bonney  Drug Lord
DADGAD Tuning, no capo

I'd guess this tab is about 90% correct. I listened to the song a lot, over and over 
till I got the parts down. Some parts were kind of hard to hear in the mix.

Intro
D|---------------------------------------------------------------------------|
A|---------------------------------------------------------------------------|
G|-------2--2--2----------2--2--2--------------------------------------------|
D|----------------0----------------0-------2--2--2--0-------2--3--5--3\2p0---|
A|--0h1--------------0h1-----------------------------------------------------|
D|------------------------------------0h3--------------0h3-------------------|

D|---------------------------------------------------------------------------|
A|---------------------------------------------------------------------------|
G|-------2--2--2----------2--2--2-/7/5---------------------------------------|
D|----------------0--------------------------2--2--2--0-------2--3--5--3\2p0-|
A|--0h1--------------0h1-----------------------------------------------------|
D|--------------------------------------0h3--------------0h3-----------------|

D|---------------------------------------------------------------------------|
A|---------------------------------------------------------------------------|
G|-------2--2--2----------2--2--2--------------------------------------------|
D|----------------0----------------0-------2--2--2--0-------2--3--5--3\2p0---|
A|--0h1--------------0h1-----------------------------------------------------|
D|------------------------------------0h3--------------0h3-------------------|

D|---------------------------------------------------------------------------|
A|---------------------------------------------------------------------------|
G|-------2--2--2----------2--2--2-/7/5---------------------------------------|
D|----------------0--------------------------2--2--2--0-------2--3--5--3\2p0-|
A|--0h1--------------0h1-----------------------------------------------------|
D|--------------------------------------0h3--------------0h3-----------------|

Verse 1 (I hate every.. one that I know..)

Guitar 1
D|------------------------------------------------------|
A|------------------------------------------------------|
G|------------9------------10-----------/5-----------/7-|
D|-----7--10--------7--10---------2--7--------2--7------|
A|--8------------8-------------3-----------3------------|
D|------------------------------------------------------|

Guitar 2*
E|-----------------------------------------------------|
B|-----------------------------------------------------|
G|--7-7-7-7----7-7-7-7----2-2-2-2----2-2-2-2-----------|
D|--0-0-0-0----0-0-0-0----0-0-0-0----0-0-0-0-----------|
A|--0-0-0-0----0-0-0-0----0-0-0-0----0-0-0-0-----------|
E|--8-8-8=8=---8-8-8-8----3-3-3-3----3-3-3-3-----------|

*I think the other guitar player is actually doing something different at this part, but 
it was very hard for me to pick out what it was.


Fill before Verse 2
D|--12------------------10----------------------|
A|--12--x16-------------12--x16-----------------|
G|----------------------------------------------|
D|----------------------------------------------|
A|----------------------------------------------|
D|----------------------------------------------|

Verse 2 (Everyone will let me down...)
Guitar 1
D|--12------10----------------------------------|
A|--12--x6--12--x6--12------12--x6--------------|
G|------------------10--x6--12------------------|
D|----------------------------------------------|
A|----------------------------------------------|
D|----------------------------------------------|

Guitar 2 (listen to timing and rhythm)
D|----------------|
A|----------------|
G|--10--9---2--2--|
D|--0---0---0--0--|
A|--0---0---0--0--|
D|--12--10--3--5--|


Bridge (fast twinkly part.. this part probably isn't 100% correct)

Guitar 1
D|----------12p10p----------------------10h12p10-|
A|-----------------12p10-------------------------|
G|------10----------------10h12--9h10------------|
D|--12-------------------------------------------|
A|-----------------------------------------------|
D|-----------------------------------------------|


D|------------------------------------------------|
A|------------------------------------------------|
G|------------------------------------------------|
D|----8------8------8------8------8------8------8-|
A|12-----12-----12-----12-----12-----12-----12----|
D|------------------------------------------------|


Guitar 2
D|------------------------------------------------------------------|
A|------12------12------12------12------13------13------13------13--|
G|----------------------------------12------12------12------12------|
D|--12------12------12------12--------------------------------------|
A|------------------------------------------------------------------|
D|------------------------------------------------------------------|


D|------------------------------------------------------------------|
A|----12------12------12------12------12------12------12------12----|
G|--10------10------10------10------12------12------12------12------|
D|------------------------------------------------------------------|
A|------------------------------------------------------------------|
D|------------------------------------------------------------------|


Fill for Verse 3
D|------------------------------------------------------------------|
A|------------------------------------------------------------------|
G|--7-7--7-7-7--7-7-7--7-7-7----------------------------------------|
D|--0-0--0-0-0--0-0-0--0-0-0----------------------------------------|
A|------------------------------------------------------------------|
D|------------------------------------------------------------------|

Verse 3(One day Ill be dead and gone..)
Guitar 1
D|-----------------------------------12p10--------------------------|
A|--------------------------------------------13p12-----------------|
G|--7-7--7-7-7--7-7-7--7-7-7----------------------------------------|
D|--0-0--0-0-0--0-0-0--0-0-0------10--------------------------------|
A|--0-0--0-0-0--0-0-0--0-0-0---12-----------------------------------|
D|--8-8--8-8-8--8-8-8--8-8-8----------------------------------------|


Guitar 2
D|------------------------------------------------------------------|
A|------------------------------------------------------------------|
G|--7-7--7-7-7--7-7-7--7-7-7--10-10--10-10-10--2-2--2-2-2-----------|
D|--0-0--0-0-0--0-0-0--0-0-0--0--0---0--0--0---0-0--0-0-0-----------|
A|--0-0--0-0-0--0-0-0--0-0-0--0--0---0--0--0---0-0--0-0-0-----------|
D|--8-8--8-8-8--8-8-8--8-8-8--12-12--12-12-12--3-3--3-3-3-----------|


What do I know? I know nothing...

D|------------------------------------------------------------------|
A|------------------------------------------------------------------|
G|--7-7-7-7--7--7-7-7-7--7---2-2-2-2--2---2-2-2-2--2----------------|
D|--0-0-0-0--0--0-0-0-0--0---0-0-0-0--0---0-0-0-0--0----------------|
A|--0-0-0-0--0--0-0-0-0--0---0-0-0-0--0---0-0-0-0--0----------------|
D|--8-8-8-8--8--8-8-8-8--8---3-3-3-3--3---3-3-3-3--3----------------|

Outro
Guitar 1
D|---------------------------------------------------------------------------|
A|---------------------------------------------------------------------------|
G|-------2--2--2----------2--2--2--------------------------------------------|
D|----------------0----------------0-------2--2--2--0-------2--3--5--3\2p0---|
A|--0h1--------------0h1-----------------------------------------------------|
D|------------------------------------0h3--------------0h3-------------------|

D|-----------------------------------------------------------------------------|
A|-----------------------------------------------------------------------------|
G|-------2--2--2----------2--2--2-/7/5-----------------------------------------|
D|---------------0--------------------------2--2--2--0-------2--3--5--3\2p0----|
A|--0h1--------------0h1-------------------------------------------------------|
D|--------------------------------------0h3--------------0h3-------------------|
Guitar 2
D|------------------------------------------------------|
A|------------------------------------------------------|
G|------------9------------10-----------/5-----------/7-|
D|-----7--10--------7--10---------2--7--------2--7------|
A|--8------------8-------------3-----------3------------|
D|------------------------------------------------------|


Reverse Outro part
D|-----------------------------------------------------|
A|-----------------------------------------------------|
G|--7---9----10---6------------------------------------|
D|--0---0----0----0------------------------------------|
A|--0---0----0----0------------------------------------|
D|--8---10---12---7------------------------------------|


Let me know what you think!! If you find any corrections, errors, etc, please don't 
hesitate in the comments. Thanks!


Tabbed out by Craig Tally
Tap to rate this tab
# A B C D E F G H I J K L M N O P Q R S T U V W X Y Z