Song name
# A B C D E F G H I J K L M N O P Q R S T U V W X Y Z

William Bonney - Dope Castle tab

-----------------------------------------------------------------------------
			     Dope Castle - William Bonney
-----------------------------------------------------------------------------

Tuning: Drop D

Intro:

e|----------------------------------------------------------------|
B|---------------15-----------------------------------------------|
G|------------14----14---------------9b---------------------------|  
D|-----10/12---------------------10------12-10--------------------|
A|------------------------10/12-----------------------------------|
D|----------------------------------------------------------------|

in the background while the intro is still going guitar 2 plays these chords. 
just listen to the song to figure out the strumming 
e|----------------------------------------------------------------|
B|----------------------------------------------------------------|
G|----------------------------------------------------------------|
D|----0---------------3-------------------------------------------|
A|----0---------------3-------------------------------------------|
D|----0---------------3-------------------------------------------|

after the intro:
e|----------------------------------------------------------------|
B|----------------------------------------------------------------|
G|-----2----------------------------------------------------------|
D|-----1--(x4)---------0------3-----------------------------------|
A|-----0---------------0------3-----------------------------------|
D|---------------------0------3-----------------------------------|

Facebook: https://www.facebook.com/williambonneyband
Tumblr:   http://willbonney.tumblr.com
Tap to rate this tab
 
# A B C D E F G H I J K L M N O P Q R S T U V W X Y Z