Guitaretab - guitar tabs
Song name
# A B C D E F G H I J K L M N O P Q R S T U V W X Y Z

William Control - Beautiful Loser tab

-------------------------------------------------------------------------------
			     Beautiful Loser - William Control
-------------------------------------------------------------------------------
Tabbed by: Niki
Email: myhappyapplerox@hotmail.com

Tuning: Standard

You can listen to this song on William Control's Myspace:
http://www.myspace.com/williamcontrol

It's a great song and easy to play. Enjoy :]

[ Tab from: http://www.guitaretab.com/w/william-control/181397.html ]
e|-------20-17--15-13-12-13-15-17----------------------------------|
B|---15------------------------------------------------------------|
G|-----------------------------------------------------------------|
D|-----------------------------------------------------------------|
A|-----------------------------------------------------------------|
E|-----------------------------------------------------------------|
Play 3 times

Then:
e|-------20-17----20-17----20-17----20-17--------------------------|
B|---15---------15-------15-------15-------------------------------|
G|-----------------------------------------------------------------|
D|-----------------------------------------------------------------|
A|-----------------------------------------------------------------|
E|-----------------------------------------------------------------|

Played:
(0:12-0:55) three times during intro
(2:00-2:42) three times during interlude 

===============================================================================
Related for Beautiful Loser tab
Beautiful Loser chords by William Control