Song name
# A B C D E F G H I J K L M N O P Q R S T U V W X Y Z

William Control - Traquilize tab

-------------------------------------------------------------------------------
			     Tranquilize - William Control
-------------------------------------------------------------------------------
Tabbed by: Niki (guitar)

Tuning: Standard

INTRO:
e|---7-5---------------------------2---2/5----------------------------------------|
B|-------5b(7)--5-7-8-7-5-3--2-3-5---5--------------------------------------------|
G|--------------------------------------------------------------------------------| x2
D|--------------------------------------------------------------------------------|
A|--------------------------------------------------------------------------------|
E|--------------------------------------------------------------------------------|

Then this little dealio layers over it (it is also the CHORUS/OUTRO):
e|---19-17--------------------------------------14----14/17-----------------------|
B|---------17b19v--17-19-20-19-17-15v--14-15-17----17-----------------------------|
G|--------------------------------------------------------------------------------|
D|--------------------------------------------------------------------------------|
A|--------------------------------------------------------------------------------|
E|--------------------------------------------------------------------------------|

PRE-CHORUS (I'm too not sure on the rhythm, but this is basically it):
e|---555x5x55-555x55---101010x1010---999x99---555x55-555x55---101010x1010---121212x1212-|
B|---------------------------------------------------------------------------------|
G|---------------------------------------------------------------------------------|
D|---------------------------------------------------------------------------------|
A|---------------------------------------------------------------------------------|
E|---------------------------------------------------------------------------------|

I think this repeats during just the beginning of the CHORUS:
e|--------555x55----------|
B|------------------------|
G|------------------------|
D|------------------------|
A|------------------------|
E|------------------------|


I'm aware there are few parts missing, but for the most part it's all here. Enjoy :]

| /  slide up
| \  slide down
| h  hammer-on
| p  pull-off
| v  vibrato
| +  harmonic
| x  dead note
===============================================================================
Tap to rate this tab
# A B C D E F G H I J K L M N O P Q R S T U V W X Y Z