Song name
# A B C D E F G H I J K L M N O P Q R S T U V W X Y Z

William Control - London Town tab

-------------------------------------------------------------------------------
			   WIlliam Control- London Town Intro
----------------------------------------------------------------------------
Email: psychout3030@aol.com

Tuning: Standard

e|-----------------------------------------1----------------------------------|
B|-----------------------------------------1----------------------------------|
G|-----------------------------------------2----------------------------------|
D|-----------------------------------------3----------------------------------|
A|---0------1--------3-------0-------------3-----------0--------1-------3-----|
E|----------------------------------3------1----------------------------------|


e|------------------------3---------------------------------------------------|
B|------------------------3---------------------------------------------------|
G|------------------------4---------------------------------------------------|
D|------------------------5---------------------------------------------------|
A|------0-----------------5--------0------1--------3--------0-----------------|
E|-------------3----------3--------------------------------------3------------|

Listen to the song for strumming patterns on the chords because he changes it up at 
parts in the song.
Tap to rate this tab
# A B C D E F G H I J K L M N O P Q R S T U V W X Y Z