Song name
# A B C D E F G H I J K L M N O P Q R S T U V W X Y Z

William Control - Strangers tab

-------------------------------------------------------------------------------
			     Strangers - William Control
-------------------------------------------------------------------------------
Tabbed by: Niki (guitar)

Tuning: Standard

INTRO:
e|-------------------------------------------------------------------------|
B|-------------------------------------------------------------------------|
G|---xx--xx-xxxx-----------------------------------------------------------|
D|---xx--xx-xxxx-----------------------------------------------------------|
A|---xx--xx-xxxx-----------------------------------------------------------|
E|---xx--xx-xxxx-----------------------------------------------------------|

THEN (this is also played in various parts of the song... just listen):
e|-------------------------------------------------------------------------|
B|-------------------------------------------------------------------------|
G|------5----3-----2-------5-----3-----0-2---------------------------------|
D|---3-----3-----3-------3-----3-----3-------------------------------------|
A|-------------------------------------------------------------------------|
E|-------------------------------------------------------------------------|

e|-------------------------------------------------------------------------|
B|-------------------------------------------------------------------------|
G|------5----3-----2-------5-----3-----0-2-0-------------------------------|
D|---3-----3-----3-------3-----3-----3-------------------------------------|
A|-------------------------------------------------------------------------|
E|-------------------------------------------------------------------------|

At the end of the "ooh-ing" and "aah-ing":
e|---17--19-20-19-17--19-20-22--20-22-22b^---------------------------------|
B|-------------------------------------------------------------------------|
G|-------------------------------------------------------------------------|
D|-------------------------------------------------------------------------|
A|-------------------------------------------------------------------------|
E|-------------------------------------------------------------------------|



| /  slide up
| \  slide down
| b bend string
| p  pull-off
| v vibrato
| +  harmonic
| x  dead note
===============================================================================
Tap to rate this tab
 
# A B C D E F G H I J K L M N O P Q R S T U V W X Y Z