Song name
# A B C D E F G H I J K L M N O P Q R S T U V W X Y Z

William Control - London Town tab

------------------------------------
 Band: William Control
 Song: London Town
 Album: Hate Culture
 Year: 2008
 Key: G Minor
------------------------------------
Contact: jdenicholls[at]hotmail.co.uk

Intro starts with a simple riff, then a strummed G Minor
e |----------------|-------3--------|
B |----------------|-------3--------|
G |----------------|-------3--------|
D |----------------|-------5--------|
A |-0---1----3---0-|-------5--------|
E |----------------|-3-----3--------| x 4

Fifth time round play the same with a A# chord strummed at the end for about 2 and a half bars
e |----------------|-------1--------|
B |----------------|-------3--------|
G |----------------|-------3--------|
D |----------------|-------3--------|
A |-0---1----3---0-|-------1--------|
E |----------------|-3--------------|

Play the whole intro twice through, then go to the verse starting with the riff 
and followed with strummed chords:
e |----------------|-------3--------|
B |----------------|-------3--------|
G |----------------|-------3--------|
D |----------------|-------5--------|
A |-0---1----3---0-|-------5--------|
E |----------------|-3-----3--------|

Gm              A#
Hate I would forever lie
             F
I would fake all the times
         A#       F            (Last two chord changes are half the length
That you broke me down misery               of the previous ones)
Gm              A#
Hate covered in broken glass
            F
My skeleton bones will last
A#    F                Gm
Far beyond flowers and dust
                 F
So where would I be?

Repeat the intro once and then move on to the second first which follows the same pattern:

Gm                    A#
Love the feeling I've lost control
           F
Failing so beautiful
         A#      F
When you left me there misery
Gm               A#
Hates blacken my artery
          F
Harden my every 
A#       F              Gm
fiber of grief stricken love
                 F
So where would I be?

Then the chorus:

A#         Gm
Sadness in London Town
A#                              F
I walk the streets of Leicester Square
A#           Gm
Sadness in my own heart's sound
Gm          F             A#
I walk till dawn the disappear

Repeat Verse 1 And Chorus
Then repeat intro riff ad lib, slowing the tempo gradually and ending with A#



Tap to rate this tab
# A B C D E F G H I J K L M N O P Q R S T U V W X Y Z