Song name
# A B C D E F G H I J K L M N O P Q R S T U V W X Y Z

William Fitzsimmons - Its Not True tab

William fitzsimmons, it's not true

e-------------------------------------------------------|
B---------------4------------------------8--------------|
F--------5-------------5-----------7-----------7--------|
D-----6-----6------6-----------8------8-----8-----------|
A--4-----------------------6----------------------------|
E-------------------------------------------------------|

e-------------------------------------------------------|
B----------------9----------------------------4---------|
F---------10-----------10-------------5---7----------5--|
D-----10-----10----10------10-------6------------6------|
A--8----------------------------------------------------|
E-----------------------------------4-------------------|

tuning
e------------------------------------------------------|
B------------------------------------------------------|
G------------------------------------------------- <---| tune down 1 step to F
D------------------------------------------------------|
A------------------------------------------------------|
E------------------------------------------------------|

thats all!
Tap to rate this tab
 
# A B C D E F G H I J K L M N O P Q R S T U V W X Y Z