Song name
# A B C D E F G H I J K L M N O P Q R S T U V W X Y Z

William Fitzsimmons - Find It In Me tab

Song: Find It In Me
Artist: William Fitzsimmons
Version: DeepRockDrive Live Version - http://www.youtube.com/watch?v=tB9p0nO7QxI
Tabbed By: Gabe Garms - gabegarms@gmail.com

The tuning that William is using in this version is DADGAD.  He has a capo on the first 
(Capo I).

The verse is three chords and he slides from the first to the second.  He also does a 
on/pull off of the G string on the 4th fret during the playing of the third chord.  It 
a better dynamic.

D----------------------------------------------|
A----------------------------------------------|
G-----0----------0----------4h-----------------|
D-----2----/-----4------0----------------------|
A-----4----/-----5------5----------------------|
D-----------------------5----------------------|

The chorus (I hope you find it.....)

D---------------0--------0--------------------|
A---------------0--------0--------------------|
G---------------2--------2--------------------|
D-----0---------0--------2--------------------|
A-----5---------------------------------------|
D-----5---------------------------------------|

If you watch the YouTube video and read along with this, all should make sense.  Feel 
to email me with any questions.  This is a fun one to play.
Tap to rate this tab
# A B C D E F G H I J K L M N O P Q R S T U V W X Y Z