Song name
# A B C D E F G H I J K L M N O P Q R S T U V W X Y Z

William Fitzsimmons - I Dont Feel It Anymore tab

-----------------------------------------------------------------------------
           I don't feel it anymore - William Fitzsimmons
-----------------------------------------------------------------------------
Email: jabroni177@gmail.com

Tuning: standard
Capo 6

verse:
e|--------------0------------------------3-----------------------------------|
B|-------1------------1------------1-----------1-----------0-----------------|
G|-----0-----0------0-----0------0-----0-----0---0-------0---0---0h2---2p0---|
D|---2-----2------2-----2------0-----0-----0-------0---0-------0-----0-----0-|
A|-0-------------------------------------------------------------------------|
E|---------------------------0-----------------------3-----------------------|

e|---------------0-----------------------------------------------------------|
B|---------3-----------3-----------------------------------------------------|
G|-------------0-----0---0---------------------------------------------------|
D|------4----4-----4-------4-------------------------------------------------|
A|---5-----------------------------------------------------------------------|
E|---------------------------------------------------------------------------|

and he pretty much repeats  that for the rest of the verse with some variations here and there.

chorus:

C (x32010)
G (320000)
D (x54030)
Em (022000)

C    G              D
  Oh take it all away
        Em
I don't feel it anymore


so yeah that's pretty much the gist of it. have fun and be blessed
Tap to rate this tab
 
# A B C D E F G H I J K L M N O P Q R S T U V W X Y Z