Song name
# A B C D E F G H I J K L M N O P Q R S T U V W X Y Z

William Fitzsimmons - I Dont Feel It Anymore tab

-------------------------------------------------------------------------------
                             I DON'T FEEL IT ANYMORE - William Fitzsimmons
-------------------------------------------------------------------------------

Tabbed by: nBode
Email: noel.bode@yahoo.com

Tuning: Standard, Capo 5


Verse:

    (Am)             (C)               (G)
e|---------0--------|---------3-------|------------------|---------0-------|
b|-----1-------1----|-----0-------0---|-----0--------0---|-----3-------3---|
g|---2---2---2----2-|---1---1---1---0-|---0---0----0---0-|---0---0---0---0-|
d|------------------|-----------------|------------------|-----------------|
a|-0----------------|-3---------------|---------0h2------|-----------------|
E|------------------|-----------------|-3----------------|-2---------------|


Chorus:

    (C)
e|-------------------|------------------|---------0--------|-----------------|
b|-----1--------1----|-----1--------1---|-----3--------3---|-----1-------1---|
g|---0---0----0---0--|---0---0----0---0-|---0---0----0---0-|---0---0---0---0-|
d|---------0h2-------|------------------|------------------|-----------------|
a|-3-----------------|-2-------0h2------|-0----------------|-0-------2-------|
E|-------------------|------------------|------------------|-----------------|


Lyrics:

Hold on this will hurt more than anything has before
What it was, what it was, what it was
I've brought this on us more than anyone could ignore
What I've done, what I've done, what I've done

I've worked for so long just to see you mess around
What you've done, what you've done, what you've done
I want back the years that you took when I was young
I was young, I was young, but it's done

Oh take it all away
I don't feel it anymore
Oh take it all away
Oh take it all away
I don't feel it anymore
Oh take it all away

We'll fall just like stars being hung by only string
Everything, everything, here is gone
No map can direct how to ever make it home
We're alone, we're alone, we're alone

Oh take it all away
I don't feel it anymore
Oh take it all away

************************************

| /   slide up
| \   slide down
| h   hammer-on
| p   pull-off
| ~   vibrato
| +   harmonic
| x   Mute note
| b   Bend
| pb  Pre-bend
| br  Bend release
| pbr Pre-bend release
| brb Bend release bend

************************************
Tap to rate this tab
# A B C D E F G H I J K L M N O P Q R S T U V W X Y Z