Song name
# A B C D E F G H I J K L M N O P Q R S T U V W X Y Z

William Fitzsimmons - I Dont Feel It Anymore tab

Hey, this is my first tab, hope you'll like it :)

h = hammer-on
p = pull-off
Capo 5th

VERSES:
e|---------0-------|---------3-------|-------------------|--------0-------|
b|---1p0-----1p0---|---1p0-----1p0---|---0---------0-----|----3-----3-----|
g|-------0-------0-|-------0-------0-|-----2p0-------2p0-|------0-----0---|
d|-----------------|-----------------|-------------------|----------------|
a|-0---------------|-----------------|---------0h2-------|----------------|
E|-----------------|-0---------------|-3-----------------|--2-------------|

CHORUS:
e|-------------------|-------------------|---------0-------|
b|-----1---------1---|-----0---------0---|-----3-------3---|
g|---0---0-----0---0-|---0---0-----0---0-|---2---2---2---2-|
d|---------0h2-------|-------------------|-0---------------|
a|-3-----------------|-2-------0h2-------|-----------------|
E|-------------------|-------------------|-----------------|

e|-----------------|
b|-----3-------3p1-|
g|---2---2---2-----|
d|-----------------|
a|-0-------2-------|
E|-----------------|

This is all you to play this song, of course you can decide whether to vary these tabs 
but I'm rather sure that it is more close to the original then the other pickings except 
for the last part of the chorus. But it actually works and sounds nice. Feedback is appreciated :)
Tap to rate this tab
# A B C D E F G H I J K L M N O P Q R S T U V W X Y Z