Song name
# A B C D E F G H I J K L M N O P Q R S T U V W X Y Z

William Fitzsimmons - I Dont Feel It Anymore tab

William Fitzsimmons - I Don't Feel It Anymore

There are few versions of this song, this is LIVE version.
Link: https://www.youtube.com/watch?v=REPtrqO1acQ

Don't know if I named all the chords right, but chords and their picking pattern are 100% correct. 
Nevertheless, I'm open to critics if you have any, feel free to rate and comment. :)



Capo 7th
Tuning - Standard

Intro:
  Am7                     Gadd11/E                G                       Dadd11 
|-------0-----------------------------3-----------------------------------------------0-----------|
|---0h1-----1-------1-----------1-----------1-----------0-----------0-----------3-----------3-----|
|-----0-----------------0-----------0-----------0-----------0-----------0-----------0-----------0-|
|---2-----2-------2---2-------0---0-------0---0-------0---0-------0---0-------4---4-------4---4---|
|-0-----------0-----------------------------------------------0h2---------5-----------------------|
|-------------------------0-----------------------3-----------------------------------------------|
 
|-------------3p0---------------------3-----------------------------------------------0-----------|
|-------1-----------1-----------1-----------1-----------0-----------0-----------3-----------3-----|
|-----------0-----------0-----------0-----------0-----------0-----------0-----------0-----------0-|
|-----2---2-------2---2-------0---0-------0---0-------0---0-------0---0-------4---4-------4---4---|
|-0-----------------------------------------------------------0h2---------5-----------------------|
|-------------------------0-----------------------3-----------------------------------------------|


Verse 1:

  Am7                     Gadd11/E                G                       Dadd11
|-------------3p0---------------------------------------------------------------------0-----------|
|-------1-----------1-----------1-----------1-----------0-----------0-----------3-----------3-----|
|-----------0-----------0-----------0-----------0-----------0-----------0-----------0-----------0-|
|-----2---2-------2---2-------0---0-------0---0-------0---0-------0---0-------4---4-------4---4---|
|-0-----------------------------------2-----------------------2-----------5-----------------------|
|-------------------------0-----------------------3-----------------------------------------------|

|-------------0-----------------------0-----------------------------------------------0-----------|
|-------1-----------1-----------1-----------1-----------0-----------0-----------3-----------3-----|
|-----------0-----------0-----------0-----------0-----------0-----------0-----------0-----------0-|
|-----2---2-------2---2-------0---0-------0---0-------0---0-------0---0-------4---4-------4---4---|
|-0-----------------------------------------------------------0h2---------5-----------------------|
|-------------------------0-----------------------3-----------------------------------------------|

|-------------3p0---------------------------------------------------------------------0-----------|
|-------1-----------1-----------1-----------1-----------0-----------0-----------3-----------3-----|
|-----------0-----------0-----------0-----------0-----------0-----------0-----------0-----------0-|
|-----2---2-------2---2-------0---0-------0---0-------0---0-------0---0-------4---4---4---4---4---|
|-0-----------------------------------2-----------------------2-----------5-----------------------|
|-------------------------0-----------------------3-----------------------------------------------|

|-------------3-----------------------------------------------------------------------0-----------|
|-------1-----------1-----------1-----------1-----------------------------------3-----------3-----|
|-----------0-----------0-----------0-----------0-----------------------------------0-----------0-|
|-----2---2-------2---2-------0---0-------0---0-------------------------------4---4-------4---4---|
|-0-----------------------------------2-----------------------------------5-----------------------|
|-------------------------0-----------------------3-----------------------------------------------|



  Am7                     Gadd11/E                G                       Dadd11
|-------------3p0---------------------3-----------------------------------------------0-----------|
|-------1-----------1-----------1-----------1-----------------------0-----------3-----------3-----|
|-----------0-----------0-----0-----0-----0-----0---0---0---0-----------0-----0-----0-----0-----0-|
|-----2---2-------2---2-----0-----0-----0-----0---------------0---0---0-----0h4---4-----4-----4---|
|-0---------------------------------------------------0---2---------------5-----------------------|
|-------------------------0-----------------------3-----------------------------------------------|

|-------------0h3p0-------------------3-----------------------------------------------0-----------|
|-------1-----------1-----------1-----------1-----0-----------------0-----3-----3-----------3-----|
|-----------0-----------0-----0-----0-----0-----0-----------------------0-----------0-----------0-|
|-----2---2-------2---2-----0-----0-----0-----0-------------------0---0-------4---4-------4---4---|
|-0-----------------------------------------------------------0h2---------5-----------------------|
|-------------------------0-----------------------3-----------------------------------------------|


Verse 2:

  Am7                     Gadd11/E                G                       Dadd11 
|-------------3p0---------------------------------------------------------------------0-----------|
|-------1-----------1-----------1-----------1-----------0-----------0-----------3-----------3-----|
|-----------0-----------0-----------0-----------0-----------0-----------0-----------0-----------0-|
|-----2---2-------2---2-------0---0-------0---0-------0---0-------0---0-------4---4-------4---4---|
|-0-----------------------------------2-----------------------------------5-----------------------|
|-------------------------0-----------------------3-----------3-----------------------------------|

|-------------0-----------------------3-----------------------------------------------------0-----|
|-------1-----------1-----------1-----------1-----------0-----------0-----------3---------------0-|
|-----------0-----------0-----------0-----------0-----------0-----------0-----------0-----0-------|
|-----2---2-------2---2-------0---0-------0---0-------0---0-------0---0-------4---4-----0h4---4---|
|-0-----------------------------------------------------------2-----------5-----------------------|
|-------------------------0-----------------------3-----------------------------------------------|

|-------------3p0---------------------------------------------------------------------0-----------|
|-------1-----------1-----------1-----------1-----------0-----------0-----------3-----------3-----|
|-----------0-----------0-----------0-----------0-----------0-----------0-----------0-----------0-|
|-----2---2-------2---2-------0---0-------0---0-------0---0-------0---0-------4---4-------4---4---|
|-0-----------------------------------2-----------------------2-----------5-----------------------|
|-------------------------0-----------------------3-----------------------------------------------|

|-------------0-----------------------3-----------------------------------------------0-----------|
|-------1-----------1-----------1-----------1-----------------------------------3-----------3-----|
|-----------0-----------0-----------0-----------0-----------------------------------0-----------0-|
|-----2---2-------2---2-------0---0-------0---0-------------------------------4---4-------4---4---|
|-0-----------------------------------------------------------------------5-----------------------|
|-------------------------0-----------------------3-----------------------------------------------|


Chorus:

  C                       G                       Dadd11                  Em          Em/F#
|-------------------------------------------------------------0-----------------------------------|
|-------1-----1-----1-----------0-----------0-----------3-----------3-----------0-----------0-----|
|-----0-----0-----------0-----------0-----------0-----------0-----------0-----------0-----------0-|
|---2-----2-------2---2-------0---0-------0---0-------4---4---4---4---4-------2---2-------2---2---|
|-3-----------3-----------------------2-----------5-----------------------------------------------|
|-------------------------3-----------------------------------------------0-----------2-----------|
  C                       G                       Dadd11
|-------------------------------------------------------------0-----------------------0-----------|
|-------1-----------1-----------0-----------0-----------3-----------3-----------3-----------3-----|
|-----------0-----------0-----------0-----------0-----0-----0-----0-----0-----0-----0-----0-----0-|
|-----0h2-2-------2---2-------0---0-------0---0-----4-----4-----4-----4-----0h4---4-----4-----4---|
|-3-----------3-----------------------------------5-----------------------5-----------------------|
|-------------------------3-----------3-----------------------------------------------------------|


|-------------------------------------------------------------------------------------------------|
|-------1-----------1-----------0-----------0-----------3-----------3-----------0-----------0-----|
|-----------0-----------0-----------0-----------0-----------0-----------0-----------0-----------0-|
|-----0h2-2-------2---2-------0---0-------0---0-------4---4-------4---4-------2---2-------2---2---|
|-3-----------3-----------------------------------5-----------5-----------------------------------|
|-------------------------3-----------3-----------------------------------0-----------2-----------|

|-------------------------------------------------------------0-------------------------0---------|
|-------1-----------1-----------0-----------0-----------3-----------3-----------------------3-----|
|-----------0-----------0-----------0-----------0-----0-----0-----0-----0-----------------------0-|
|-----0h2-2-------2---2-------0---0-------0---0-----4-----4-----4-----4---------------------------|
|-3-----------3-----------------------------------5-----------------------5-----------------------|
|-------------------------3-----------3-----------------------------------------------------------|


Verse 3:

  Am7                     Gadd11/E                G                       Dadd11
|-------------3-----------------------------------------------------------------------0-----------|
|-------1-----------1-----------1-----------1-----------0-----------0-----------3-----------3-----|
|-----------0-----------0-----------0-----------0-----------0-----------0-----------0-----------0-|
|-----2---2-------2---2-------0---0-------0---0-------0---0-------0---0-------4---4-------4---4---|
|-0-----------------------------------2-----------------------2-----------5-----------------------|
|-------------------------0-----------------------3-----------------------------------------------|

|-------------3-----------------------------------------------------------------------0-----------|
|-------1-----------1-----------1-----------1-----------0-----------0-----------3-----------3-----|
|-----------0-----------0-----------0-----------0-----------0-----------0-----------0-----0-----0-|
|-----2---2-------2---2-------0---0-------0---0-------0---0-------0---0-------4---4-----4-----4---|
|-0-----------------------------------------------------------2-----------5-----------------------|
|-------------------------0-----------0-----------3-----------------------------------------------|

|-------------3p0---------------------------------------------------------------------0-----------|
|-------1-----------1-----------1-----------1-----------0-----------0-----------3-----------3-----|
|-----------0-----------0-----------0-----------0-----------0-----------0-----------0-----------0-|
|-----2---2-------2---2-------0---0-------0---0-------0---0-------0---0-------4---4-------4---4---|
|-0-----------------------------------2-----------------------------------5-----------------------|
|-------------------------0-----------------------3-----------3-----------------------------------|

|-------------------------------------3---------0-------------------------------------0-----------|
|-0h1---1-----1-----1-----------1-----------1-----------------------------------3-----------3-----|
|-0---------0-0---------0-----------0-----------------------------------------0-----0-----0-----0-|
|-2-----------2---2---2-------0---0-------0---0-----------------------------4-----4-----4-----4---|
|-0---0---0---0-----------------------------------------------------------5-----------------------|
|-------------------------0-----------------------3-----------------------------------------------|


Chorus(4 repeats, but every time different strumming):

   C           Cadd9       G                       Dadd11                  Em
|-------------------------------------------------------------------------------------------------|
|-1---1-1-1-1-----1-1-1-1-----0-0---------0-0-0-0-----3-3-3-3-----3-3-3-3-----0-0---------0-0-0-0-|
|-0---0-0-0-0-----0-0-0-0-----0-0-----0---0-0-0-0-----0-0-0-0-----0-0-0-0-----0-0-----0---0-0-0-0-|
|-2---2-2-2-2-0---0-0-0-0-----0-0-----0---0-0-0-0-4---4-4-4-4-4---4-4-4-4-----0-0-----2---0-0-0-0-|
|-3-----------3-----------2-----------2-----------5-----------5-----------2-----------2-----------|
|-------------------------3-------3---------------------------------------0-------0---------------|
|                                                                                                 |
| C                       G                       D           Dsus4       D           Dsus2       |
|-----------------------------------------------------2-2-2-2-2h3-3-3-3-3-3p2-2-2-2-2-0---0-0-0-0-|
|-------1-1-1-----1-1-1-1-----0-0---------0-0-0-0-3---3-3-3-3-3---3-3-3-3-3---3-3-3-3-3---3-3-3-3-|
|-----1-0-0-0-----0-0-0-0-----0-0-----0---0-0-0-0-2---2-2-2-2-2---2-2-2-2-2---2-2-2-2-2---2-2-2-2-|
|-0h2---2-2-2-2---2-2-2-2-----0-0-----0---0-0-0-0-0-----------0-----------0-----------0-----------|
|-3-----------3-----------2-----------2-----------------------------------------------------------|
|-------------------------3-------3---------------------------------------------------------------|


  C                       G                       D
|-------------------------------------------------2-----------------------------------------------|
|-------1-1-1-----1-1-1-1-----0-0---------0-0-0-0-3-----------------------------------------------|
|-----1-0-0-0-----0-0-0-0-----0-0-----0---0-0-0-0-2-----------------------------------------------|
|-0h2---2-2-2-2---2-2-2-2-----0-0-----0---0-0-0-0-0-----------------------------------------------|
|-3-----------3-----------2-----------2-----------------------------------------------------------|
|-------------------------3-------3---------------------------------------------------------------|
|                                                                                                 |
| C                       G                       D           Dsus4       D5          Dsus4 D Dsus2
|-----------------------------------------------------2-2-2-2-2h3-3-3-3-3-5---5-5-5-5-3---3-2-2-0-|
|-------1-1-1-----1-1-1-1-----0-0---------0-0-0-0-3---3-3-3-3-3---3-3-3-3-3---3-3-3-3-3---3-3-3-3-|
|-----1-0-0-0-----0-0-0-0-----0-0-----0---0-0-0-0-2---2-2-2-2-2---2-2-2-2-2---2-2-2-2-2---2-2-2-2-|
|-0h2---2-2-2-2---2-2-2-2-----0-0-----0---0-0-0-0-0-----------0-----------0-----------0-----------|
|-3-----------3-----------2-----------2-----------------------------------------------------------|
|-------------------------3-------3---------------------------------------------------------------|


  C           Cadd9       G                       D           Dsus4add9   Em7         Dsus2/F#
|-----------------------------------------------------2-2-2-2-----0-0-0-0-0---0-0-0-0-0---0-0-0-0-|
|-------1-1-1-----1-1-1-1-----0-0---------0-0-0-0-3---3-3-3-3-3---3-3-3-3-3---3-3-3-3-3---3-3-3-3-|
|-----1-0-0-0-----0-0-0-0-----0-0-----0---0-0-0-0-2---2-2-2-2-0---0-0-0-0-0---0-0-0-0-2---2-2-2-2-|
|-0h2---2-2-2-0---0-0-0-0-----0-0-----0---0-0-0-0-0-----------0-----------0-----------0-----------|
|-3-----------3-----------2-----------2-----------------------------------2-----------0-----------|
|-------------------------3-------3---------------------------------------0-----------2-----------|
|                                                                                                 |
| C           Cadd9       G                       D           Dsus4       D           Dsus2       |
|-----------------------------------------------------2-2-2-2-2h3-3-3-3-3-3p2-2-2-2-2-0---0-0-0-0-|
|-------1-1-1-----1-1-1-1-----0-0---------0-0-0-0-3---3-3-3-3-3---3-3-3-3-3-3-3-3-3-3-3---3-3-3-3-|
|-----1-0-0-0-----0-0-0-0-----0-0-----0---0-0-0-0-2---2-2-2-2-2---2-2-2-2-2-0-0-0-0-0-2---2-2-2-2-|
|-0h2---2-2-2-0---0-0-0-0-----0-0-----0---0-0-0-0-0-----------0-----------0-----------0-----------|
|-3-----------3-----------2-----------2-----------------------------------------------------------|
|-------------------------3-------3---------------------------------------------------------------|


  C           Cadd9       G                       D           Dsus4add9   Em7         Dsus2/F#         
|-------------------------------------------------------2-----------0-----------------------------|
|-------1-1-1-----1-1-1-1-----0-0---------0-0-0-0-------------------------------3-----------3-----|
|-----1-0-0-0-----0-0-0-0-----0-0-----0---0-0-0-0-----------2-----------0-----------0-----------2-|
|-0h2---2-2-2-0---0-0-0-0-----0-0-----0---0-0-0-0-0---0---0---0---0---0-------0---0-------0---0---|
|-3-----------3-----------2-----------2-----------------------------------------------------------|
|-------------------------3-------3---------------------------------------0-----------2-----------|
|                                                                                                 |
| C                       G                       D                                               |
|-------------------------------------------------------2-----0h2-----0--------2------------------|
|-------1-----------1-----------0-----------0-----------------------------------------------------|
|-----0---0-------------0-----------0-----------0-----------2-------------------------------------|
|---2-------2-----2---2-------0---0-------0---0---0---0---0-------0-------0-----------------------|
|-3-----------3-----------------------------------------------------------------------------------|
|-------------------------3-----------3-----------------------------------------------------------|


Lyric:  

Hold on this will hurt more than anything has before
What it was, what it was, what it was
I've brought this on us more than anyone could ignore
What I've done, what I've done, what I've done

I've worked for so long just to see you mess around
What you've done, what you've done, what you've done
I want back the years that you took when I was young
I was young, I was young, but it's done

Oh take it all away
I don't feel it anymore
Oh take it all away
Oh take it all away
I don't feel it anymore
Oh take it all away

We'll fall just like stars being hung by only string
Everything, everything, here is gone
No map can direct how to ever make it home
We're alone, we're alone, we're alone

Oh take it all away
I don't feel it anymore  
Oh take it all away
Tap to rate this tab
# A B C D E F G H I J K L M N O P Q R S T U V W X Y Z