Song name
# A B C D E F G H I J K L M N O P Q R S T U V W X Y Z

William Fitzsimmons - Beautiful Girl tab

Tabbed by: stollkopf1 a.k.a. Wallrabe

This is my first Tab ever. i tried my very best and i hope you like it.
 William himself varies a lot with the capo so you can actually
 put it where ever it sound best for you. have fun!! ;)

Tuning:EADGBE

e|-----------------------0-----------------------------------------------------|
B|--1--------1--------------------1------------------------------1--------1----|p
G|---------------2---------------------2--------------------0-------0----------|
D|-------3-----------3-------3---------------3--------2-----------------2------|
A|--3---------------------------------------------0----------------------------|
E|-----------------------------------------------------------------------------|

e|---------------------------------------------------------------------------|
B|--------0---------------------------------0--------------------------------|
G|------------0-----------0---------------------0---------------0------------|
D|---2----------------0-------0---------0----------------2---------2---------|
A|-------------------------------0h2-----------------------------------------|
E|----------------3----------------------------------0------0----------------|

e|-----------------------------------------------0---------------------------|
B|------0--------------------1--------1------------------1-------------------|
G|---------0-------0----------------------2-----------------2----------------|
D|---------------------0----------3-----------3------3----------3------------|
A|---------------------------3-----------------------------------------------|
E|--0---------0--------------------------------------------------------------|

e|--------------------------3p0----------------------------------------------|
B|------------1-----------------------0--------0------0---------0h1----------|
G|---------0------0-----------------------0--------------0-------------------|
D|-----2---------------2----------2----------------0---------0---------------|
A|--0------------------------------------------------------------------------|
E|---------------------------------------------3----------------3------------|

e|---------------------------------------------------------------------------|
B|-----1-----------0---------------------------------------------------------|
G|--------0------------------------------------------------------------------|
D|--0----------0-------------------------------------------------------------|
A|---------------------------------------------------------------------------|
E|-----------------3---------------------------------------------------------|

e|---------------------5-------------------------------0------------0--------|
B|--6--------6-----------------6--------------------------1-------------1----|
G|--------------7------------------7-------------2-----------0h2-------------|
D|------7-----------7------7-----------7-----3--------------------0----------|
A|--5------------------------------------------------------------------------|
E|---------------------------------------------------------------------------|

e|---------------------------------------------------------------------------|
B|----------1------------1--------------0-----------0------------------------|
G|-------0-----0------0-----0--------0-----0------0----0---------------------|
D|---------------------------------------------------------------------------|
A|--3--------------3---------------------------------------------------------|
E|-------------------------------3-------------3-----------------------------|

e|--------------------5--------------------------0---------------0-----------|
B|--6------6------------------6---------------------1----------------1-------|
G|-------------7------------------7----------2---------0h2-------------------|
D|-----7-----------7------7----------7---3--------------------3--------------|
A|--5------------------------------------------------------------------------|
E|---------------------------------------------------------------------------|

e|---------------------------------------------------------------------------|
B|-----------1-----------------1--------1------------------------------------|
G|--------0-----------------0--------0---------------------------------------|
D|-----2-------------2---3--------3------------------------------------------|
A|--3------------3--------------------------3--------------------------------|
E|---------------------------------------------------------------------------|

************************************

| /   slide up
| \   slide down
| h   hammer-on
| p   pull-off
| ~   vibrato
| +   harmonic
| x   Mute note
| b   Bend
| pb  Pre-bend
| br  Bend release
| pbr Pre-bend release
| brb Bend release bend

************************************
Tap to rate this tab
 
# A B C D E F G H I J K L M N O P Q R S T U V W X Y Z