Song name
# A B C D E F G H I J K L M N O P Q R S T U V W X Y Z

William Fitzsimmons - Beautiful Girl tab

verse

(Even though it happens through out the song, I'm only showing this pattern on the first line with 
the things in ().
He sometimes hits these notes and sometimes he doesnt so have fun with it)

e|--------------0------------------------------------|
B|--1-----1-----------1----(1)----1-----1p0---0------|
G|------2---2-------2---2-------2---2-----2-------0--|
D|----3-------3---3-------3---2-------2-----2---2----|
A|--3----------(3)----------0----------------(0)-----|
E|---------------------------------------------------|

e|--------------------------------------0------------|
B|--------0-----------0-----------0-----------0------|
G|------0---0-------0---0-------0---0-------0---0----|
D|----0-------0---0-------0---2-------2---2-------2--|
A|--------------0h2----------------------------------|
E|--3-----------------------0------------------------|

e|--------------0------------------------------------|
B|--1-----1-----------1-----------1-----1p0---0------|
G|------2---2-------2---2-------2---2-----2-------0--|
D|----3-------3---3-------3---2-------2-----2---2----|
A|--3-----------------------0------------------------|
E|---------------------------------------------------|

e|---------------------------------------------------|
B|--------0-----0h1---1-----0------------------------|
G|------0---0-----0-------0--------------------------|
D|----0-------0-----0---0----------------------------|
A|---------------------------------------------------|
E|--3-----------------------3------------------------|

e|--------------0------------------------------------|
B|--1-----1-----------1-----------1-----1p0---0------|
G|------2---2-------2---2-------2---2-----2-------0--|
D|----3-------3---3-------3---2-------2-----2---2----|
A|--3-----------------------0------------------------|
E|---------------------------------------------------|

e|--------------------------------------0------------|
B|--------0-----------0-----------0-----------0------|
G|------0---0-------0---0-------0---0-------0---0----|
D|----0-------0---0-------0---2-------2---2-------2--|
A|--------------0h2----------------------------------|
E|--3-----------------------0------------------------|

e|--------------0------------------------------------|
B|--1-----1-----------1-----------1-----1p0---0------|
G|------2---2-------2---2-------2---2-----2-------0--|
D|----3-------3---3-------3---2-------2-----2---2----|
A|--3-----------------------0------------------------|
E|---------------------------------------------------|

e|---------------------------------------------------|
B|--------0-----0h1---1-----0-----0-----0-----0------|
G|------0---0-----0-------0-----0---0----------------|
D|----0-------0-----0---0-----0-------0--------------|
A|----------------------------------------------0-2--|
E|--3-----------------------3-----------3-----3------|
e|--------------0------------------------------------|
B|--1-----1-----------1-----------1-----1p0---0------|
G|------2---2-------2---2-------2---2-----2-------0--|
D|----3-------3---3-------3---2-------2-----2---2----|
A|--3-----------------------0------------------------|
E|---------------------------------------------------|

e|--------------------------------------0------------|
B|--------0-----------0-----------0-----------0------|
G|------0---0-------0---0-------0---0-------0---0----|
D|----0-------0---0-------0---2-------2---2-------2--|
A|--------------0h2----------------------------------|
E|--3-----------------------0------------------------|

e|--------------0------------------------------------|
B|--1-----1-----------1-----------1-----1p0---0------|
G|------2---2-------2---2-------2---2-----2-------0--|
D|----3-------3---3-------3---2-------2-----2---2----|
A|--3-----------------------0------------------------|
E|---------------------------------------------------|

e|---------------------------------------------------|
B|--------0-----0h1---1-----0------------------------|
G|------0---0-----0-------0--------------------------|
D|----0-------0-----0---0----------------------------|
A|---------------------------------------------------|
E|--3-----------------------3------------------------|

chorus

e|--------------5-----------------------0------------|
B|--7-----7-----------7-----------1-----------1------|
G|------6---6-------6---6-------2---2-------2---2----|
D|----6-------6---6-------6---3-------3---3-------3--|
A|--5-----------------------3------------------------|
E|---------------------------------------------------|

e|---------------------------------------------------|
B|--1-----0-----0h1---0-----0-----0-----0-----0------|
G|------0---0-----0-------0-----0---0-------0---0----|
D|----2-------2-----2---2-----0-------0---0-------0--|
A|--3------------------------------------------------|
E|--------------------------3------------------------|

e|--------------5-----------------------0------------|
B|--7-----7-----------7-----------1-----------1------|
G|------6---6-------6---6-------2---2-------2---2----|
D|----6-------6---6-------6---3-------3---3-------3--|
A|--5-----------------------3------------------------|
E|---------------------------------------------------|

e|---------------------------------------------------|
B|--1-----0-----0h1---1-----0------------------------|
G|------0---0-----0-------0--------------------------|
D|----2-------2-----2---2----------------------------|
A|--3------------------------------------------------|
E|--------------------------3------------------------|


Tap to rate this tab
# A B C D E F G H I J K L M N O P Q R S T U V W X Y Z