Song name
# A B C D E F G H I J K L M N O P Q R S T U V W X Y Z

William Fitzsimmons - Funeral Dress tab

-------------------------------------------------------------------------------
			     FUNERAL DRESS - William Fitzsimmons
-------------------------------------------------------------------------------
Tabbed By: NodToTheAgedP
Tuning: Standard

CAPO 2

With 1 Guitar:

Intro/Verse Riff

e|--------------------------------------------------------------------------------|
B|--------------------------------------------------------------------------------|
G|--------------------------------------------------------------------------------|
D|-----6-------6----------9-------9-------9-------9---------9--------9------------|
A|--4-----4-4------4/7-7----7-7--------0-----0-0------0--0------0--0-------0-[x3--|
E|-----------------------------------7--------------------------------------------|


e|--------------------------------------------------------------------------|
B|--------------------------------------------------------------------------|
G|--------------------------------------------------------------------------|
D|-----6-------6----------9-------9-------9-------9---------9-----7-6-4-----|
A|--4-----4-4------4/7-7----7-7--------0-----0-0------0--0------0-------7---|
E|-----------------------------------7--------------------------------------|


Chorus Chords
    Bsus2/E    C#m7           Asus2
e|----0----------4-------------0-----------------|
B|----4----------5-------------5-----------------|
G|----4----------4-------------4-----------------|
D|----2----------6-------------7-----------------|
A|----0----------4-------------0-----------------|
E|----0----------X-------------X-----------------|


With 2 Guitars:

Guitar 1:

e|--------------------------------------------------------------------------------|
B|--------------------------------------------------------------------------------|
G|--------------------------------------------------------------------------------|
D|-----6-------6----------9-------9-------9-------9---------9--------9------------|
A|--4-----4-4------4/7-7----7-7--------0-----0-0------0--0------0--0-------0-[x4--|
E|-----------------------------------7--------------------------------------------|

Guitar 2:
(comes in with a pickup)
           |:                                                                            
    :|
e|---------|------------------------------------------------------------------------------|
B|---------|------------------------------------------------------------------------------|
G|-2-1-----|------------------------------------------------------------------------------|
D|-----4-2-|-----2-------2---------2----------2-----------2-------2----------2-------2--2-|
A|---------|--4-------4--------6--------6/7--------2--0---------0--------0-------0--------|
E|---------|------------------------------------------------------------------------------|


Listen to the song to get a feel for it. This is meant only to be a reference for 
not so much picking pattern.

Good luck!

| /  slide up
| \  slide down
| h  hammer-on
| p  pull-off
| ~  vibrato
| +  harmonic
| x  Mute note

http://www.myspace.com/williamfitzsimmons
Tap to rate this tab
# A B C D E F G H I J K L M N O P Q R S T U V W X Y Z