Guitaretab - guitar tabs
Song name
# A B C D E F G H I J K L M N O P Q R S T U V W X Y Z

William Fitzsimmons - My Life Changed tab

Tabbed By: Joey B.

Verse:

   G		      D		   A			Bm
e----------3----|------2-------|---------0----|---------0-----|
B-------3-------|--------3-----|------2-----2-|------3------3-|
G---0---------0-|---2--------2-|--2-----------|--4------------|
D-----0--0------|-0---0----0---|----2-----2---|----4------4---|
A---------------|--------------|-0-----0------|-2-----2-------|
E--3------------|--------------|--------------|---------------|
You had this pattern of repeating every word that you would say

   G		      D		   A			A
e----------3----|------2-------|---------0----|---------0-----|
B-------3-------|--------3-----|------2-----2-|------2-----2--|
G---0---------0-|---2--------2-|--2-----------|--2------------|
D-----0--0------|-0---0----0---|----2-----2---|----2-----2----|
A---------------|--------------|-0-----0------|-0-----0-------|
E--3------------|--------------|--------------|---------------|
Every word that you would say

   G		      D		   A			Bm
e----------3----|------2-------|---------0----|---------0-----|
B-------3-------|--------3-----|------2-----2-|------3------3-|
G---0---------0-|---2--------2-|--2-----------|--4------------|
D-----0--0------|-0---0----0---|----2-----2---|----4------4---|
A---------------|--------------|-0-----0------|-2-----2-------|
E--3------------|--------------|--------------|---------------|
Till I met you with a sigh and to this day I still regret

   G		      D		   A			A
e----------3----|------2-------|---------0----|---------0-----|
B-------3-------|--------3-----|------2-----2-|------2-----2--|
G---0---------0-|---2--------2-|--2-----------|--2------------|
D-----0--0------|-0---0----0---|----2-----2---|----2-----2----|
A---------------|--------------|-0-----0------|-0-----0-------|
E--3------------|--------------|--------------|---------------|
How I made you go away

   G		      D		   A			Bm
e----------3----|------2-------|---------0----|---------0-----|
B-------3-------|--------3-----|------2-----2-|------3------3-|
G---0---------0-|---2--------2-|--2-----------|--4------------|
D-----0--0------|-0---0----0---|----2-----2---|----4------4---|
A---------------|--------------|-0-----0------|-2-----2-------|
E--3------------|--------------|--------------|---------------|
I saw the whole world from your eyes, at least the glimpse you let me see

   G		      D		   A			A
e----------3----|------2-------|---------0----|---------0-----|
B-------3-------|--------3-----|------2-----2-|------2-----2--|
G---0---------0-|---2--------2-|--2-----------|--2------------|
D-----0--0------|-0---0----0---|----2-----2---|----2-----2----|
A---------------|--------------|-0-----0------|-0-----0-------|
E--3------------|--------------|--------------|---------------|
And what a glimpse you let me see

   G		      D		   A			Bm
e----------3----|------2-------|---------0----|---------0-----|
B-------3-------|--------3-----|------2-----2-|------3------3-|
G---0---------0-|---2--------2-|--2-----------|--4------------|
D-----0--0------|-0---0----0---|----2-----2---|----4------4---|
A---------------|--------------|-0-----0------|-2-----2-------|
E--3------------|--------------|--------------|---------------|
But your eyes can never stretch, over boundaries made in stone

   G		      D		   A			A
e----------3----|------2-------|---------0----|---------0-----|
B-------3-------|--------3-----|------2-----2-|------2-----2--|
G---0---------0-|---2--------2-|--2-----------|--2------------|
D-----0--0------|-0---0----0---|----2-----2---|----2-----2----|
A---------------|--------------|-0-----0------|-0-----0-------|
E--3------------|--------------|--------------|---------------|
Im afraid thats what will be


Pre-Chorus:

   Bm			 A		     D		  G		
e----------0-----|----------0----|------2-------|----------3----|
B-------3------3-|------2h3----2-|--------3-----|-------3-------|
G---4------------|--2------------|---2--------2-|---0---------0-|
D-----4------4---|----2------2---|-0---0----0---|-----0--0------|
A--2-----2-------|-0-------------|--------------|---------------|
E----------------|---------------|--------------|--3------------|
I imagine if I had another chance

   G		      D		   A			A
e----------3----|------2-------|---------0----|---------0-----|
B-------3-------|--------3-----|------2-----2-|------2-----2--|
G---0---------0-|---2--------2-|--2-----------|--2------------|
D-----0--0------|-0---0----0---|----2-----2---|----2-----2----|
A---------------|--------------|-0-----0------|-0-----0-------|
E--3------------|--------------|--------------|---------------|
To tell you all the things I should have said

   Bm			 A		     D		  G		
e----------0-----|----------0----|------2-------|----------3----|
B-------3------3-|------2h3----2-|--------3-----|-------3-------|
G---4------------|--2------------|---2--------2-|---0---------0-|
D-----4------4---|----2------2---|-0---0----0---|-----0--0------|
A--2-----2-------|-0-------------|--------------|---------------|
E----------------|---------------|--------------|--3------------|
Wed still find ourselves content in circumstance

   G		      D		   A			A
e----------3----|------2-------|---------0----|---------0-----|
B-------3-------|--------3-----|------2-----2-|------2-----2--|
G---0---------0-|---2--------2-|--2-----------|--2------------|
D-----0--0------|-0---0----0---|----2-----2---|----2-----2----|
A---------------|--------------|-0-----0------|-0-----0-------|
E--3------------|--------------|--------------|---------------|
But Im content to say this anyway


Chorus:

   G		      D		   A			Bm
e----------3----|------2-------|---------0----|---------0-----|
B-------3-------|--------3-----|------2-----2-|------3------3-|
G---0---------0-|---2--------2-|--2-----------|--4------------|
D-----0--0------|-0---0----0---|----2-----2---|----4------4---|
A---------------|--------------|-0-----0------|-2-----2-------|
E--3------------|--------------|--------------|---------------|
The day that you were hit by that car... By that car

   G		      D		   A			A
e----------3----|------2-------|---------0----|---------0-----|
B-------3-------|--------3-----|------2-----2-|------2-----2--|
G---0---------0-|---2--------2-|--2-----------|--2------------|
D-----0--0------|-0---0----0---|----2-----2---|----2-----2----|
A---------------|--------------|-0-----0------|-0-----0-------|
E--3------------|--------------|--------------|---------------|
The day that you were hit by that car... By that car

   G		      D		   A			Bm
e----------3----|------2-------|---------0----|---------0-----|
B-------3-------|--------3-----|------2-----2-|------3------3-|
G---0---------0-|---2--------2-|--2-----------|--4------------|
D-----0--0------|-0---0----0---|----2-----2---|----4------4---|
A---------------|--------------|-0-----0------|-2-----2-------|
E--3------------|--------------|--------------|---------------|
The day that you were hit by that car... By that car

   G		      D		   A			A
e----------3----|------2-------|---------0----|---------0-----|
B-------3-------|--------3-----|------2-----2-|------2-----2--|
G---0---------0-|---2--------2-|--2-----------|--2------------|
D-----0--0------|-0---0----0---|----2-----2---|----2-----2----|
A---------------|--------------|-0-----0------|-0-----0-------|
E--3------------|--------------|--------------|---------------|
The day that you were hit by that car... My life changed


Bridge:

Guitar 1:
--------------------------------|--|--------------------------------|
--------------------------------|--|--------------------------------|
--------------------------------|--|--------------------------------|
----4-4/5-4-------------------4-|x3|---4-5--4-----------------------|
--7---------7-5-5/7--5-4-5--7---|--|-7--------7-5-5/7--5-4-5--5-4-5-|
--------------------------------|--|--------------------------------|
[ Tab from: http://www.guitaretab.com/w/william-fitzsimmons/95379.html ]
Guitar 2
   G		      D		   A			Bm
e----------3----|------2-------|---------0----|---------0-----|
B-------3-------|--------3-----|------2-----2-|------3------3-|
G---0---------0-|---2--------2-|--2-----------|--4------------|
D-----0--0------|-0---0----0---|----2-----2---|----4------4---|
A---------------|--------------|-0-----0------|-2-----2-------|
E--3------------|--------------|--------------|---------------|

   G		      D		   A			A
e----------3----|------2-------|---------0----|---------0-----|
B-------3-------|--------3-----|------2-----2-|------2-----2--|
G---0---------0-|---2--------2-|--2-----------|--2------------|
D-----0--0------|-0---0----0---|----2-----2---|----2-----2----|
A---------------|--------------|-0-----0------|-0-----0-------|
E--3------------|--------------|--------------|---------------|
x2

Verse:

   G		      D		   A			Bm
e----------3----|------2-------|---------0----|---------0-----|
B-------3-------|--------3-----|------2-----2-|------3------3-|
G---0---------0-|---2--------2-|--2-----------|--4------------|
D-----0--0------|-0---0----0---|----2-----2---|----4------4---|
A---------------|--------------|-0-----0------|-2-----2-------|
E--3------------|--------------|--------------|---------------|
I was lost and out of touch, with the way you made me feel

   G		      D		   A			A
e----------3----|------2-------|---------0----|---------0-----|
B-------3-------|--------3-----|------2-----2-|------2-----2--|
G---0---------0-|---2--------2-|--2-----------|--2------------|
D-----0--0------|-0---0----0---|----2-----2---|----2-----2----|
A---------------|--------------|-0-----0------|-0-----0-------|
E--3------------|--------------|--------------|---------------|
With the way you make me feel

   G		      D		   A			Bm
e----------3----|------2-------|---------0----|---------0-----|
B-------3-------|--------3-----|------2-----2-|------3------3-|
G---0---------0-|---2--------2-|--2-----------|--4------------|
D-----0--0------|-0---0----0---|----2-----2---|----4------4---|
A---------------|--------------|-0-----0------|-2-----2-------|
E--3------------|--------------|--------------|---------------|
Everyday just passes now, and I cant count them on my own

   G		      D		   A			A
e----------3----|------2-------|---------0----|---------0-----|
B-------3-------|--------3-----|------2-----2-|------2-----2--|
G---0---------0-|---2--------2-|--2-----------|--2------------|
D-----0--0------|-0---0----0---|----2-----2---|----2-----2----|
A---------------|--------------|-0-----0------|-0-----0-------|
E--3------------|--------------|--------------|---------------|
And your face is never real


Pre-Chorus:

   Bm			 A		     D		  G		
e----------0-----|----------0----|------2-------|----------3----|
B-------3------3-|------2h3----2-|--------3-----|-------3-------|
G---4------------|--2------------|---2--------2-|---0---------0-|
D-----4------4---|----2------2---|-0---0----0---|-----0--0------|
A--2-----2-------|-0-------------|--------------|---------------|
E----------------|---------------|--------------|--3------------|
I imagine if I had another chance

   G		      D		   A			A
e----------3----|------2-------|---------0----|---------0-----|
B-------3-------|--------3-----|------2-----2-|------2-----2--|
G---0---------0-|---2--------2-|--2-----------|--2------------|
D-----0--0------|-0---0----0---|----2-----2---|----2-----2----|
A---------------|--------------|-0-----0------|-0-----0-------|
E--3------------|--------------|--------------|---------------|
To tell you all the things I should have said

   Bm			 A		     D		  G		
e----------0-----|----------0----|------2-------|----------3----|
B-------3------3-|------2h3----2-|--------3-----|-------3-------|
G---4------------|--2------------|---2--------2-|---0---------0-|
D-----4------4---|----2------2---|-0---0----0---|-----0--0------|
A--2-----2-------|-0-------------|--------------|---------------|
E----------------|---------------|--------------|--3------------|
Wed still find ourselves content in circumstance

   G		      D		   A			A
e----------3----|------2-------|---------0----|---------0-----|
B-------3-------|--------3-----|------2-----2-|------2-----2--|
G---0---------0-|---2--------2-|--2-----------|--2------------|
D-----0--0------|-0---0----0---|----2-----2---|----2-----2----|
A---------------|--------------|-0-----0------|-0-----0-------|
E--3------------|--------------|--------------|---------------|
But Im content to say this anyway


Chorus:

Guitar 1
   G		      D		   A			Bm
e----------3----|------2-------|---------0----|---------0-----|
B-------3-------|--------3-----|------2-----2-|------3------3-|
G---0---------0-|---2--------2-|--2-----------|--4------------|
D-----0--0------|-0---0----0---|----2-----2---|----4------4---|
A---------------|--------------|-0-----0------|-2-----2-------|
E--3------------|--------------|--------------|---------------|
The day that you were hit by that car... By that car

   G		      D		   A			A
e----------3----|------2-------|---------0----|---------0-----|
B-------3-------|--------3-----|------2-----2-|------2-----2--|
G---0---------0-|---2--------2-|--2-----------|--2------------|
D-----0--0------|-0---0----0---|----2-----2---|----2-----2----|
A---------------|--------------|-0-----0------|-0-----0-------|
E--3------------|--------------|--------------|---------------|
The day that you were hit by that car... By that car

   G		      D		   A			Bm
e----------3----|------2-------|---------0----|---------0-----|
B-------3-------|--------3-----|------2-----2-|------3------3-|
G---0---------0-|---2--------2-|--2-----------|--4------------|
D-----0--0------|-0---0----0---|----2-----2---|----4------4---|
A---------------|--------------|-0-----0------|-2-----2-------|
E--3------------|--------------|--------------|---------------|
The day that you were hit by that car... By that car

   G		      D		   A			A
e----------3----|------2-------|---------0----|---------0-----|
B-------3-------|--------3-----|------2-----2-|------2-----2--|
G---0---------0-|---2--------2-|--2-----------|--2------------|
D-----0--0------|-0---0----0---|----2-----2---|----2-----2----|
A---------------|--------------|-0-----0------|-0-----0-------|
E--3------------|--------------|--------------|---------------|
The day that you were hit by that car... My life changed


Guitar 2:
Play around with these chords

e--12-12-12-12\10-10-10-10\7-7-7-7\5-5-5-5---|
B--10-10-10-10\-8--8--8--8\5-5-5-5\3-3-3-3---|
G---9--9--9--9\-7--7--7--7\4-4-4-4\2-2-2-2---|
D--------------------------------------------|
A--------------------------------------------|
E--------------------------------------------|

Outro:

   G		      D		   A			Bm
e----------3----|------2-------|---------0----|---------0-----|
B-------3-------|--------3-----|------2-----2-|------3------3-|
G---0---------0-|---2--------2-|--2-----------|--4------------|
D-----0--0------|-0---0----0---|----2-----2---|----4------4---|
A---------------|--------------|-0-----0------|-2-----2-------|
E--3------------|--------------|--------------|---------------|
You had this pattern of repeating every word that you would say

   G		      D		   A			A
e----------3----|------2-------|---------0----|---------0-----|
B-------3-------|--------3-----|------2-----2-|------2-----2--|
G---0---------0-|---2--------2-|--2-----------|--2------------|
D-----0--0------|-0---0----0---|----2-----2---|----2-----2----|
A---------------|--------------|-0-----0------|-0-----0-------|
E--3------------|--------------|--------------|---------------|
Every word that you would say

   G		      D		   A			Bm
e----------3----|------2-------|---------0----|---------0-----|
B-------3-------|--------3-----|------2-----2-|------3------3-|
G---0---------0-|---2--------2-|--2-----------|--4------------|
D-----0--0------|-0---0----0---|----2-----2---|----4------4---|
A---------------|--------------|-0-----0------|-2-----2-------|
E--3------------|--------------|--------------|---------------|
Till I met you with a sigh and to this day I still regret

   G		      D		   A			A
e----------3----|------2-------|---------0----|---------0-----|
B-------3-------|--------3-----|------2-----2-|------2-----2--|
G---0---------0-|---2--------2-|--2-----------|--2------------|
D-----0--0------|-0---0----0---|----2-----2---|----2-----2----|
A---------------|--------------|-0-----0------|-0-----0-------|
E--3------------|--------------|--------------|---------------|
How I made you go away
Related for My Life Changed tab