Song name
# A B C D E F G H I J K L M N O P Q R S T U V W X Y Z

William Fitzsimmons - Passion Play tab

Tabbed by:me
Email:

Tuning:standard

capo 2
relative to capo


guitar 1

e|--0-0-0-0-0---0-0-0-0-0---0-0-0-0-0-|
B|--3-3-3-3-3---3-3-3-3-3---3-3-3-3-3-|
G|--2-2-2-2-2---2-2-2-2-2---2-2-2-2-2-|
D|--0-0-0-0-0---0-0-0-0-0---0-0-0-0-0-|repeat
A|--2-2-2-2-2---0-0-0-0-0---x-x-x-x-x-|
E|--x-x-x-x-x---x-x-x-x-x---3-3-3-3-3-|


guitar 2
e|--------------------------------------------------------------------------------------|
B|--------------------------------------------------------------------------------------|
G|----12s10--10s8-----------------------------------------------------------------------|
D|--------------------------------------------------------------------------------------|
A|--------------------------------------------------------------------------------------|
E|--------------------------------------------------------------------------------------|
guitar one
e|-------------------------------------------------------------------------------------|
B|-------------------------------------------------------------------------------------|
G|------------2-0----2---2--2----------------------------------------------------------|
D|--2-4-2-0--0------0---0--0-----------------------------------------------------------|
A|----------2----2s4-------------------------------------------------------------------|
E|---------------------3--3------------------------------------------------------------|
Tap to rate this tab
# A B C D E F G H I J K L M N O P Q R S T U V W X Y Z