William Ross - Tuck Everlasting Theme tab

E-------------------------------------------------------|
B---3---3---1---0---0-----------------------------------|
G-----2-----------2---2---0---2-------------------------|
D-------------------------------0---3---5---3---5---7---|
A-------------------------------------------------------|
E-------------------------------------------------------|


E-------------------------------------------------------|
B---3---3---1---0---0-----------------------------------|
G-----2-----------2---2---0---2-------------------------|
D--------------------------------0---3---5---3---2---0--|
A-------------------------------------------------------|
E-------------------------------------------------------|
Tap to rate this tab
 
# A B C D E F G H I J K L M N O P Q R S T U V W X Y Z