Song name
# A B C D E F G H I J K L M N O P Q R S T U V W X Y Z

William Shatner - Real tab

                                      REAL
                As recorded by William Shatner feat. Brad Paisley
                         (From the 2004 Album HAS BEEN)

Transcribed by Brian Murtagh

Gtr I (E A D G B E) - 'Country Fried Acoustic'

  
Any Quesions, Write me at lunchboxattacks@hotmail.com

William Shatner's site: http://www.williamshatner.com/

http://www.youtube.com/watch?v=NTVXaLt-J8M

I CANNOT BELIEVE THERE'S NO SHATNER TABS!


This is how you strum the C chord, you can do this thoughout. 
  Gtr I
  E. S S S E +S  S S S S S S S   S  E  S S S E +S  S S S S S S S
|------------------------------|---------------------------------|
|-1--1-x-x-1-(1)-1-x-x-1-1-1-1-|-1-(1)-1-x-x-1-(1)-1-x-x-1-1-1-1-|
|-0--0-x-x-0-(0)-0-x-x-0-0-0-0-|-0-(0)-0-x-x-0-(0)-0-x-x-0-0-0-0-|
|-2--2-x-x-2-(2)-2-x-x-3-3-3-3-|-0h=2--2-x-x-2-(2)-2-x-x-3-3-3-3-|
|-3--3-x-x-3-(3)-3-x-x-3-3-3-3-|-3-(3)-3-x-x-3-(3)-3-x-x-3-3-3-3-|
|------------------------------|---------------------------------|


Here is the strumming for the F, again you can do this throughout for the F.

  S  E  S E E +S  E S S S S S
|-----------------------------|
|-1-(1)-1---1-(1)-1---1-1-1-1-|
|-0h=2--2---2-(2)-2---2-2-2-2-|
|-3-(3)-3---3-(3)-3---3-3-3-3-|
|-3-(3)-3---3-(3)-3---3-3-3-3-|
|-----------------------------|


C

C
I have saved the world in the movies
Am           G                        F
So naturally there's folks who think I must know what to know
C
But just because you've seen me on your TV
Am            G                            F
Doesn't mean I'm any more enlightened than you


                    G       Am
And while there's a part of me
         F
In that guy you've seen
         C
Up there on that screen
     G
I am so much more
     C       G                   F
And I wish I knew the things you think I do
        C           G/B       Am
I would change this world for sure
      Dm       C                              G      
But I eat and sleep and breathe and bleed and feel
F
Sorry to disappoint you
            C
But I'm real


C
I'd love to help the world and all its problems
Am                G        F    
But I'm an entertainer, and that's all
C
So the next time there's an asteroid or a natural disaster
Am              G          
I'm flattered that you thought of me
Fsus2
But I'm not the one to call


                    Am     G
And while there's a part of me
F
In that guy you've seen
C
Up there on that screen
G
I am so much more
      Am     G                   F     
And I wish I knew the things you think I do
        C           G/B       Am
I would change this world for sure
      Dm      C                               G
But I eat and sleep and breathe and bleed and feel
F
Sorry to disappoint you

But I'm real








Solo:

   ~~~  PM------|                   ~~~~~~  ~
   Q.   S S S S S S S S S S   S S S S +E  S S +Q.     S S
|---------------------------|---------------------------8-|
|---------------------------|-------------8---------/10---|
|-----------------------5---|-7---7s9-(9)---9-(9)---------|
|---------------------5---5-|---5-------------------------|
|-------------3---5s7-------|-----------------------------|
|-/5----0-3-3---3-----------|-----------------------------|


   |----6-----| |----6----| |----6----| |----6----|
   S S  S S S S S S S S S S S S S S S S S S S S S S
|-10p8----8s7-7-----------5-------------------------|
|------10-------8s5-5---5---8p5---6p5---------------|
|---------------------5---------7-----7s9s7p5---5-7-|
|---------------------------------------------7-----|
|---------------------------------------------------|
|---------------------------------------------------|


                ~~~~~~~
  S S S S S S a E +S  S Q  S S
|------------------------------|
|--------------------------0-1-|
|--------------------------1-2-|
|-5h7---5-7---5h7-(7)p5--------|
|------------------------------|
|------------------------------|
                                                 ~~~~~~
 E S S E S S S S S  S S  S S  S    +E   E  S S  E  +E  E E  E
|---------------8---10---12---13-|-(13)-12-10s8h10-(10)-8---17-|
|---4-5---7-8--------------------|-----------------------------|
|---4-5---8-9--------------------|-----------------------------|
|--------------------------------|-----------------------------|
|--------------------------------|-----------------------------|
|--------------------------------|-----------------------------|


                                       ~~~
   a  Q.    e  a  Q   E a  E    +E  E +H.
|-17s12----12-12s10--12-8s10-|-(10)s8-(8)----|
|----------------------------|---------------|
|----------------------------|---------------|
|----------------------------|---------------|
|----------------------------|---------------|
|----------------------------|---------------|


Duration Legend
---------------
W - whole; H - half; Q - quarter; E - 8th; S - 16th; T - 32nd; X - 64th; a - acciaccatura
+ - note tied to previous; . - note dotted; .. - note double dotted
Uncapitalized letters represent notes that are staccato (1/2 duration)
Irregular groupings are notated above the duration line
Duration letters will always appear directly above the note/fret number it represents the
duration for.  Duration letters with no fret number below them represent rests.  Multi-
bar rests are notated in the form Wxn, where n is the number of bars to rest for.  Low
melody durations appear below the staff

Tablature Legend
----------------
 h   - hammer-on
 p   - pull-off
 b   - bend
 pb  - pre-bend
 r   - bend release (if no number after the r, then release immediately)
 /\  - slide into or out of (from/to "nowhere")
 s   - legato slide
 S   - shift slide


Tap to rate this tab
# A B C D E F G H I J K L M N O P Q R S T U V W X Y Z