Guitaretab - guitar tabs
Song name
# A B C D E F G H I J K L M N O P Q R S T U V W X Y Z

Williams Brooks - Only For A Moment tab

Album: Little Lion
Title: Only For A Moment
Artist: Brooks Williams
Tuning: EADGBE

I know it isn't perfect, but this is the gist of the song. Have fun. 
Any suggestions --> adeagle18@wmconnect.com

* -- Harmonic 12th Fret
(x) -- Ghosted Note
V-strum down

||--------------------------------------------------------------------------------------
||--------------------------------------------------------------------------------------
||---------------------------------7---------------------------0--------- ---------0-
||----------------5----7--7 / 9--------9 p 7----5------------5--------- ---------0---0--
||-----2 / 7 ----------------------------------------------3-------------- ----3--------
||-0---------------------------------------------------------------------3 / 5----------

||-------------------------------------------------------------------------0-------------
||---------------------------------------------------------------------0-----------------
||---------0---------------------0--------------------------------0----------------------
||-----5---------------------0--------------------------------2--------------------------
||--3---------------------3--------------------------------2-----------------------------
||-----------------3 / 5---------------------3---2---0-----------------------------------
									
||-----------------------------------------------------------------------------------
||----------------------------------------------------------------------------------
||--------------------------------7--------------------------0---------------0------
||----------------5----7--7 / 9--------9 p 7----5---------5----------------0---0----
||-----2 / 7 ------------------------------------------3-----------------3---------
||-0---------------------------------------------------------------3-/-5------------

Improvise with the harmonics 
||-------------------------------------------------------------------------*------------
||--------------------------------------------------------------------*-----------------
||---------0----------------------0----------------------------- *----------------------
||-----5---------------------0------------------------------2---------------------------
||--3---------------------3------------------------------2------------------------------
||----------------3 /-5---------------------3---2---0-----------------------------------

||-------------------------------------------------------------------------------
||-------------------------------------------------------------------------------
||-----------2-------------0---------- 4--2--0--2--2h4p2p0--------0--------------
||------4--------------2-------2----------------0---------------2---2------------
||-5--------------3----------------3---2--------0------------3-------------------
||-------------------------------------3--------2--------------------------------

||-----------------------------------------------------------------0----
||-----------------------------------------------------------------0----
||----------------------0--------------------0--------------------------
||---------0h2----------------------------4-----4-------------3---------
||---------3---------------------------3--------------------4-----------
||---------3-----------------3-/-5------------------------4-------------


Repeat the first two lines again. Then:

||-------------------------------------------------------------------------
||-------------------------------------------------------------------------
||----------2--------------0--------4---2---0---2----2h4p2p0---0-----------
||------4--------------2------------------------0--------------------------
||--5--------------3----------------2-----------0--------------------------
||----------------------------------3-----------2--------------------------

||---------------------------0-------0-------0-----3--------
||---------------------------1-------1-------1-----3--------
||--------0-------------------------------------------------
||----2------2------------------2-------2------2------------
||-3------------------3-------------------------------------
||----------------------------------------------------------

||------------------------------------------------------------
||-------------------------------------------------------------
||--------2---2--2---------2h4p2p0--------------0--0----------
||----------------------0------------------------2----2--2---
||-------------------------------------------3--------3--3----
||---2---2---2--2-------------------------------------------

            V      V
------------0-----------------------0---0-----------
------------1--------------------0----0-------------			
-----0------0------2-----------0--------------------
-------2----2------0---------2----------------------
--3---------3------0-------2------------------------
-------------------2-----0-------------------------
				    		 
						
							
||----3---3-----/10----8--7--5---5--5--3-h-5--5 /-7--5- 3------------------
||---------------------------------------------------------------------4---
||-------------------------------------------------------------------------
||----(2)----------------------------(0)-----(2)--------------(0)----------
||-------------------------------------------------------------------------
||-------------------------------------------------------------------------

Repeat this part 6 times.
||-------------------------------------------------------------------
||-----------------------------*-------------------------------------
||--------------------------------*--------0-------------------------
||---------------------12----------------9----0----------------------
||----------------10-------------------------------------------------
||-------------------------------------------------------------------

||------------------------------------------------------------------------------
||-----------------------(0)------------(0)-------------------------------------
||--------0------------0--------------0-------------------0-----------0--4--(0)-
||-----5-------------2--------------5------------------0-----0------5-----------
||--3-------------3-------------/ 3-------------------3----------3--------------
||-------------------------------------------------5----------------------------	

Repeat the 350/3500 line twice more
then finish with this:
					
||--------------------------------------------------3---------------	
||-------------------------------------------------------------------	
||-----------------0-------------------------------------------------
||-----------5-------------------0----------------------------------
||-----3-------------------3----------------------------------------
||---------------------5--------------4--------3-------------------

[ Tab from: http://www.guitaretab.com/w/williams-brooks/25738.html ]
Related for Only For A Moment tab
Advertisement will be closed in 10 seconds