Song name
# A B C D E F G H I J K L M N O P Q R S T U V W X Y Z

Willie Nelson - Seven Spanish Angels tab

Seven Spanish Angels
--------------------

song-  Seven Spanish Angels
band-  Willie Nelson
year-  ?
album- ?

tuning:

standard tuning (E A D G B E)


Intro    gtr 1

|5--5--6---8----8---8---8--6--5--|3--5----------------|-------------------|
|6--6--8--10---10--10--10--8--6--|5--6--6---6--6--5---|5--3--3---3--3-----|
|--------------------------------|------7---7--7--5---|5--3--3---3--3--5--|
|--------------------------------|--------------------|----------------7--|
|--------------------------------|--------------------|-------------------|
|--------------------------------|--------------------|-------------------|

|--------5-6p5-----------|
|--------------6---------|
|--5-------------7-7--5--|
|--7---------------------|
|------------------------|
|------------------------|


gtr 2

|1-------------|1-------------|----------1----|1-----------|
|1-------------|3-------------|3---------1----|1-----------|
|2-------------|2-------------|3---------2----|2-----------|
|3-------------|0-------------|3---------3----|3-----------|
|3-------------|--------------|1---------3----|3-----------|
|1-------------|--------------|---------------|1-----------|



tab legend
-------------

p        pull off



well i was lookin and some of the tabs r pretty good but they didnt
have the intro so i decided i would put it so here u go!!
Tap to rate this tab
# A B C D E F G H I J K L M N O P Q R S T U V W X Y Z