Song name
# A B C D E F G H I J K L M N O P Q R S T U V W X Y Z

Willie Nelson - All Of Me tab

-------------------------------------------------------------------------------
	           SONG NAME - All of Me, Solo 1 and 2
-------------------------------------------------------------------------------
Tabbed by:jefro
Email:jeffyman_78645 at yahoo

Tuning: Standard

e|---------------------------------------------------------------------------|
B|---------6788---------8-10-8-7------------------|-----~--------~-----------|
G|---76789------77---------------8-----7/9-7------9-7---7-7h9p7-\5-----------|
D|----------------9----------------9---------989------9----------------------|
A|----------------~----------------~-----------------------------------------|
E|---------------------------------------------------------------------------|

e|---------------------------------------------------------------------------|
B|---------------------------------------------------------------------------|
G|-----------/\----------------------------hh---hh--hh-----7-77--------------|
D|-8/9 9 **-9--9-99\7-55h7p5---7/9-\7---7-789-789--789-----------10--10-10---|
A|--------------------------7--------979---------------9---------------------|
E|-------------------------~-------------------------------------------------|
          ** about a dozen times


e|-------------------------------------------------------------7------7------|
B|---------------8-------8--10-8-7-------------------------------10-8---10---|
G|-7-77--5/7-7------7---------------8-----7/9-7----9-7---7-5-------------~~--|
D|-9-99--7/9-9--------9----------------9--------989----9---------------------|
A|---------------------------------------------------------------------------|
E|---------------------------------------------------------------------------|

e|------------------------------7--7-----------------------------------------|
B|--8h10p8-7---------7----8---8------8-88--77-/66-5--------------------------|
G|-----------------7----9---9------------------------------------------------|
D|-------------7/9-----------------------------------------------------------|
A|---------------------------------------------------------------------------|
E|---------------------------------------------------------------------------|

Second solo difference after the dozen 9's starts something like this. I didn't put the 
in. It is a slight change from first part after below.

e|---------------------------------------------------------------------------|
B|-------------5----10-10-88-77----------------------------------------------|
G|-----------4--------------------/9-9-7-7-------77-66-5---------------------|
D|---------5-------------------------------10-10-99-88-7---------------------|
A|-----4-7-------------------------------------------------------------------|
E|---5-----------------------------------------------------------------------|

Intro is something like this.
e--7------7----|
B|--10-8---10--|
G|-------------|
D|-------------|
A|-------------|
E|-------------|

e|------------------------------7--7-----------------------------------------|
B|--8h10p8-7---------7----8---8------8-88--77-/66-5--------------------------|
G|-----------------7----9---9------------------------------------------------|
D|-------------7/9-----------------------------------------------------------|
A|---------------------------------------------------------------------------|
E|---------------------------------------------------------------------------|


Should be enought for a beginner like me to play along with Willie at least.
Tap to rate this tab
# A B C D E F G H I J K L M N O P Q R S T U V W X Y Z