Song name
# A B C D E F G H I J K L M N O P Q R S T U V W X Y Z

Willie Nelson - Shotgun Willie tab

|-----------------------------------------------------------------------|
|-----------------------------------------------------------------------|
|-----------2h0-0----------------2h0-0-----------------2h0-0------------|
|-------0-0------------------0-0-------------------0-0------------------|
|-0h2h4-----------0-0-0-2-4-------------0-0-0-2-4-------------0-0-0-2-4-|
|-----------------------------------------------------------------------|


|-------------------------|
|-------------------------|
|-----2h0-0---------------|
|-0-0---------------------|
|------------0-0-0-2-4----|
|-------------------------|
Tap to rate this tab
# A B C D E F G H I J K L M N O P Q R S T U V W X Y Z