Song name
# A B C D E F G H I J K L M N O P Q R S T U V W X Y Z

Willie Nelson - Blue Eyes Crying In The Rain tab

im not 1,000,000% positive this is completely correct, but its the way i 
play it. this is my first tab, so hopefully i dont screw everything up!


b=bend
v=vibrato
/=slide
p=pull off
h=hammer on

   (1:09)                                (1:16)
e--------------------------------------------------------------7-6--5------|
B-------7--7/9----9b10-9-------9b10-9(/7)---5-----------------9-8---7------|
G-----9----------------------9---------------------------------------------|
D---9----------------------9-----------------------------------------------|
A--------------------------------------------------------------------------|
E--------------------------------------------------------------------------|

e----------------------7---7-------------------------------------------------|
B---9--7v-----------10---9----------------5-7/9--9-9-9b10-9-------9b10-9(/7)-|
G---------------------------------------4-----------------------9------------|
D-----------------9-----------------9/6-----------------------9--------------|
A----------------------------------------------------------------------------|
E----------------------------------------------------------------------------|

e--------------------------------------------------------------------------|
B---5------------5-7/9-9p7h9---9-7v--------9b10r9(/7)-5--------4-----3----3|
G--------------4-------------------------9-------------------2------1----0-|
D----------9/6-------------------------9-----------------------------------|
A-----------------------------------------------------------3------2----1--|
E--------------------------------------------------------------------------|

e--------------0---------------------------------------------|
B-----3--------0---------------------------------------------|
G----2---------1---------------------------------------------|
D--------------2---------------------------------------------|
A---0----------2---------------------------------------------|
E--------------x---------------------------------------------|

again, this was my first tab, let me know where i screwed up, thanks, cobey steadham
Tap to rate this tab
 
# A B C D E F G H I J K L M N O P Q R S T U V W X Y Z