Song name
# A B C D E F G H I J K L M N O P Q R S T U V W X Y Z

Willie Nelson - Hands On The Wheel tab

e|-----------------------------------------------------------------|
B|----------3--2---------------------------------------------------|
G|------2---2--2---------------------------------------------------|
D|----2---0----2---------------------------------------------------|
A|--0--------------------------------------------------------------|
E|-----------------------------------------------------------------|

e|---------------------------------|-------7--7h9---9~--7/5----5---------|
B|---------------------------------|--10----------------------------7----|
G|----6---7---7/9-----6---7---7/9--|-------------------------------------|
D|---------------------------------|-------------------------------------|
A|---------------------------------|-------------------------------------|
E|---------------------------------|-------------------------------------|

e|------------------------------------------------|
B|------------------------------------------------|
G|-5/9--9-(9)-(9)---11p9--7h9---5/7--9--7--6------|
D|--------------------------------------9--7--9---|
A|--------------------------------------------11--|
E|------------------------------------------------|

e|--------------------------------------------7--------|
B|-------------------------------------7--10----10-----|
G|-5/9--9-(9)-(9)---11p9--7h9---9-9-9------------------|
D|-----------------------------------------------------|
A|-----------------------------------------------------|
E|-----------------------------------------------------|
                                                                                         
               3:45
e|--9--9~9-9p7---------------------------------------------------------------|
B|---------------10--7~7----------10-----------------------------------------|
G|------------------------9--7--6----9--6------7-6---------------------------|
D|-----------------------------------------9--7-7--9--7----------------------|
A|---------------------------------------------------------------------------|
E|---------------------------------------------------------------------------|

e|----------------------0--5--7~---7-----------10-9-7-9/5-5-55-------------------|
B|--------------------2--------------9/5--5-5------------------------------------|
G|-----------------2-------------------------------------------------------------|
D|--7/2--2--0----2---------------------------------------------------------------|
A|-------------4-----------------------------------------------------------------|
E|-------------------------------------------------------------------------------|

e|---------------------------------------------------------------------------|
B|--7/9-10--7/9-10---10/5-5--------------------------------------------------|
G|---------------------------------------------------------------------------|
D|---------------------------------------------------------------------------|
A|---------------------------------------------------------------------------|
E|---------------------------------------------------------------------------|

e|-----------------------5--7--7/9--9~---7/5--5------------------------------|
B|-----------------------------------------------7---------------------------|
G|--6-7-7/9--6-----7-9-------------------------------------------------------|
D|---------------------------------------------------------------------------|
A|---------------------------------------------------------------------------|
E|---------------------------------------------------------------------------|

e|--4--5--------------------------------------------------------------------------|
B|-------5------------------------------------------------------------------------|
G|---------6-6-6~6----------------------------------------------------------------|
D|-------------------9--7----8p7--------------------------------------------------|
A|------------------------------9-7------7--0-------------------------------------|
E|----------------------------------10-9------------------------------------------|
Tap to rate this tab
# A B C D E F G H I J K L M N O P Q R S T U V W X Y Z