Song name
# A B C D E F G H I J K L M N O P Q R S T U V W X Y Z

Willie Nelson - Uncloudy Day tab

          -------------------------------------------------------------------------------
                                                          UNCLOUDY DAY - Willie Nelson
          -------------------------------------------------------------------------------
Hey! Here's the intro to the song, (in the key that he plays it in.) 
This is my first tab so feel free to comment/correct. Hope you like it!

Tabbed by: gtudor25

Tuning: Standard

e|------------------------------------------------------------------|
B|----------------------------------9/10-10-------------------------|
G|-5--7--10--10-7-10--10-7-10--10-7---------(7)-10--10-7-10-7\5-5---|
D|------------------------------------------------------------------|
A|------------------------------------------------------------------|
E|------------------------------------------------------------------|

e|------------------------------------------------------------------------------|
B|------6--6----6--6---6--6-6---------------------------------------------------|
G|-5h7-------7-------7--------7-5----0----5--------------0-0-5-3-5-3-5(p)2~--2~-|
D|---------------------------------5---2----2-3--3-3-5--------------------------|
A|------------------------------------------------------------------------------|
E|------------------------------------------------------------------------------|

e|--------------------------------------------|
B|--------------------------------------------|
G|-5-3-5-5-5-5--5p3-5-5p3-5--3\2----2-3-5-5-5-|
D|-------------------------------3------------|
A|--------------------------------------------|
E|--------------------------------------------|

e|----------------------------------------------------|
B|-6--4-----------------------6-4---6-----------------|
G|------5-3b--3\2-3----2-3-5------5---5-8p5--5\3-1----|
D|------------------3-------------------------------3-|
A|----------------------------------------------------|
E|----------------------------------------------------|

e|--------------------|
B|-6p4------------(6)-|
G|-----5\3-3b---------|
D|-------------3------|
A|--------------------|
E|--------------------|


| /   slide up
| \   slide down
| h   hammer-on
| p   pull-off
| ~   vibrato
| +   harmonic
| x   Mute note
| b   Bend
| pb  Pre-bend
| br  Bend release
| pbr Pre-bend release
| brb Bend release bend
Tap to rate this tab
# A B C D E F G H I J K L M N O P Q R S T U V W X Y Z