Song name
# A B C D E F G H I J K L M N O P Q R S T U V W X Y Z

Willie Revillame - Kung Para Sa Yo tab

TITLE      : Kung Para Sa'Yo  
ARTIST	   : Willie Revillame 
TABBED BY  : Rolando Lontiong Dagcutan Jr.
SCHOOL	   : Notre Dame of Tacurong College
LEVEL	   : College
COURSE	   : Bachelor of Science in Computer Science
Email Add  : Bass_Trojan@yahoo.com

Ganda Kasi ng intro kaya ginawan ko...
hope tama...
Ganda rin  ng song...
wew...

Intro:
A-E-F#m-C#-D-E

e-10-8/10-11-1113-13-8~-|-----------------------|--------------------------|
B-----------------------|-9/11-13-13/15-15-10~--|-10/11----11-10~----------|
G-----------------------|-----------------------|-------12-------10-10/12~-|
D-----------------------|-----------------------|--------------------------|
A-----------------------|-----------------------|--------------------------|
E-----------------------|-----------------------|--------------------------|

Do it After every Chorus... 

e-10-10/13-11-|-11-10--------------|
B-------------|-------13-11-13/16~-|
G-------------|--------------------|
D-------------|--------------------|
A-------------|--------------------|
E-------------|--------------------|


for any comment...
just email me...
tnx...

P.E.A.C.E.O.U.T.
Tap to rate this tab
 
# A B C D E F G H I J K L M N O P Q R S T U V W X Y Z