Song name
# A B C D E F G H I J K L M N O P Q R S T U V W X Y Z

Willie Revillame - Boom Tarat Tarat tab

Song:boom tarat tarat
Artist:willie revillame
Tabbed by:serenade_edy
Email:jevin12@yahoo.com add me on friendster
Tuning:standard

this song have been famous or dance i guess so i made a tab for
this song hope you enjoy it...........peace
power chord:you only need to strum it
e|---------------------------------------------------------------|
B|---------------------------------------------------------------|
G|--7-7-7-7--------9-9-9-9---------------------------------------|
D|--7-7-7-7--------9-9-9-9---------1-2-1-2----7--7-7-------------|
A|--5-5-5-5--------7-7-7-7---------1-2-1-2----7--7-7-------------|
E|--------------------------------------------5--5-5-------------|
   boom tarat2x)   boom tarat(2x)  tararat    bom bom...


or the plucking .....
e|----2-2-2-2-------7-7-7-7---7h9p7h9---------------------------|
B|-------------------------------------------7h9p7--------------|
G|--------------------------------------------------------------|
D|--------------------------------------------------------------|
A|--------------------------------------------------------------|
E|--------------------------------------------------------------|

enjoy this is just for fun.....make the boomtarat chorus lol im sure if u play it people 
love it wowowee
Tap to rate this tab
# A B C D E F G H I J K L M N O P Q R S T U V W X Y Z