Song name
# A B C D E F G H I J K L M N O P Q R S T U V W X Y Z

Willknots - Vertigo tab

Vertigo by Willknots
From Before It Shatters
Tabbed by chargerbandit
Tabbed 27.8.2012

Freaking awesome band that barely anyone knows about, shame they fell apart.

(/) Slide Up  (\) Slide Down  (h) Hammer On  (p) Pull Off  (b) Bend (r) Release (v) 
Vibrato (l) Let ring

intro riff - palm mute the two notes, play 3x
E|-----------------------------------|
B|-----------------------------------|
G|-----------------------------------|
D|----5----3----2----2h3-------------|
A|-33---33---33---33-----------------|
E|-----------------------------------|
final time play like this
E|-----------------------------------|
B|-----------------------------------|
G|-----------------------------------|
D|----5----3----0----3-2-------------|
A|-33---33---33---33-----------------|
E|-----------------------------------|

riff1 - play 2x
E|--------------------------------------------|
B|--------------------------------------------|
G|--------------------------------------------|
D|-55--55-55------------------------55--------|
A|-33--33-33--55--55-55--33--33-33--33--55-55-|
E|------------33--33-33--11--11-11------33-33-|

chorus - "I got a case of vertigo..."
E|-----------------------------------|
B|-----------------------------------|
G|-----------------------------------|
D|-5555-----------5555---------------|
A|-3333-5555-3333-3333-5555----------|
E|------3333-1111------3333----------|

"I cant get all of this, this game..."
E|-----------------------------------|
B|-----------------------------------|
G|-----------------------------------|
D|-5555------------------------------|
A|-3333-5555-3333-5555---------------|
E|------3333-1111-3333---------------|
"I cant get all of this in summer..." continues
E|-----------------------------------|
B|-----------------------------------|
G|-----------------------------------|
D|-5555------------------------------|
A|-3333-5555-3333-3333---------------|
E|------3333-1111-1111---------------|

Play both previous riffs 2x,then end on
"thank god that something..."
E|-----------------------------------|
B|-----------------------------------|
G|-----------------------------------|
D|-----------------------------------|
A|-5555-5555-------------------------|
E|-3333-3333-------------------------|

In the slow part, just play intro riff with less distortion,
once the drums start, second guitar just plays
E|-----------------------------------|
B|-----------------------------------|
G|-----------------------------------|
D|-55-55-55-55-----------------------|
A|-33-33-33-33-----------------------|
E|-----------------------------------|
After you repeat that riff 3x, then just play that chord until next part.

Let bass play once, then play the "solo" riff:
E|-----------------------------------|
B|-----------------------------------|
G|-5555-4444-5555-7777---------------|
D|-----------------------------------|
A|-3333-2222-3333-5555---------------|
E|-----------------------------------|

For the end, just play intro once and end on the C power chord.

If you find and mistakes or want me to tab a punkrock song,
email me at: chargerbandit.69@gmail.com

Have fun!
Tap to rate this tab
# A B C D E F G H I J K L M N O P Q R S T U V W X Y Z