Song name
# A B C D E F G H I J K L M N O P Q R S T U V W X Y Z

Willow Wisp - The Hurting tab

Willow Wisp
The Hurting
The Building Up and Breaking Down of Matter
1997

http://www.willowwisp.org
http://www.myspace.com/willowwispband


Tabbed by Garrett Padilla:
soldiers.of.filth@gmail.com

I only have figured out the main riff, set in E standard. 
Feel free to criticize, as this is my second song tabbed by ear.


Tempo: 123

(Let all ring)

E|------------|------------|------------|------------|
B|------------|------------|------------|------------|
G|----9-----9-|-10----9----|----9-----9-|-10----9----|
D|-7----10----|----7-----7-|------10----|----7-----7-|
A|------------|------------|-7----------|------------|
E|------------|------------|------------|------------|


E|------------|------------|------------|------------|
B|------------|------------|------------|------------|
G|----9-----9-|-10----9----|----9-----9-|----9-----9-|
D|-7----10----|----7-----7-|------10----|------10----|
A|------------|------------|-7----------|-11---------|
E|------------|------------|------------|------------|


E|------------|------------|------------|------------|
B|------------|------------|------------|------------|
G|----9-----9-|-10----9----|----9-----9-|-10----9----|
D|-7----10----|----7-----7-|------10----|----7-----7-|
A|------------|------------|-7----------|------------|
E|------------|------------|------------|------------|


E|------------|------------|------------|------------|
B|------------|------------|------------|------------|
G|----9-----9-|-10----9----|----9-----9-|----9-----9-|
D|-7----10----|----7-----7-|------10----|------10----|
A|------------|------------|-11---------|-7----------|
E|------------|------------|------------|------------|


I find this best sounds with a Line 6 Spider III 75 on John 5 
Acoustic setting, with the Echo all the way off, a very small 
amount of Delay, and Reverb up to max.
Tap to rate this tab
# A B C D E F G H I J K L M N O P Q R S T U V W X Y Z