Song name
# A B C D E F G H I J K L M N O P Q R S T U V W X Y Z

Willy Mason - When The Leaves Have Fallen tab

-------------------------------------------------------------------------------
			     WHEN THE LEAVES HAVE FALLEN - Willy Mason
-------------------------------------------------------------------------------
Tabbed by: James Davies
Email: efilsgod@hotmail.com

Tuning: Shtandard , capo on 4th fret.

Ok this is a pretty simple song. I can only really give an outline of the tab because 
a lot of playing around with it and the guitar often gets swallowed up by the strings and 
else.

There a 2 main parts and it's all based around a C chord, which is picked while the bass 
about as follows:

Part 1. (I haven't shown all the picking but it should be done around the notes shown in 
- the bass notes are the important ones do them with your thumb)

e|-(0)--------------------------------------------------------------|
B|-(1)--------------------------------------------------------------|
G|-(0)--------------------------------------------------------------|
D|-(2)--0-2---3-2--0------------------------------------------------|
A|--3-------3--------3--0--2----------------------------------------|
E|----------------------------3-------------------------------------|

Part 2.
  (Clean my shirt and hide me from police)
e|----------------------------------------------------------------------|
B|----------------------------------------------------------------------|
G|---3--2--0-----1---0--------------------------------------------------|
D|------------3---------3--2--------------------------------------------|
A|-----------------------------3----------------------------------------|
E|----------------------------------------------------------------------|

Part 2b. A variation that comes at the end of the second verse
 (Learn to sing the blues)
e|----------------------|
B|----------------------|
G|---3--2--0------------|
D|------------3---------|
A|----------------------|
E|----------------------|

And that is it. You should easily be able to work out where each bit goes.
Tap to rate this tab
 
# A B C D E F G H I J K L M N O P Q R S T U V W X Y Z