Song name
# A B C D E F G H I J K L M N O P Q R S T U V W X Y Z

Willy Mason - Into Tomorrow tab

This was originally tabbed by "Shining Light", but here has been reversed for 
those who are used to reading tabs this way. 

Here is a link to the song for those who want to follow along to get into the 
rhythm: http://www.youtube.com/watch?v=uLXv22RTtIc

Intro

e ------------------------------------------------3----|
b -3-----3-1-0---------0----------3-----3-1-0-6-3------|
g ---0---------2p0-2-----2-0---0----0------------------|
d -----0-------------0-------0--------0----------------|
a -----------------------------------------------------|
E -3-----3-3-3-3---3--------------3-----3-3-3-6-3------|

e ------------------------------------------------------------------------------|
b -3-----3-1-0---------0------------------0-----------------0-------------0-----|
g ---0---------2p0-2-----2-0----------2-----2-0---------2-------------2---------|
d -----0-------------0--------2p0-2p0---0-------2p0-2p0---0---2-0-0p2---0---2-0-|
a ------------------------------------------------------------------------------|
E -3-----3-3-3-3---3----------3---3---3---------3---3---3---------3---3---------|

Verse

e ------------------------------------------------3----|
b -3-----3-1-0---------0----------3-----3-1-0-6-3------|
g ---0---------2p0-2-----2-0---0----0------------------|
d -----0-------------0-------0--------0----------------|
a -----------------------------------------------------|
E -3-----3-3-3-3---3--------------3-----3-3-3-6-3------|

Chorus (Repeat 4 times)

e -------------|
b -----5-------|
g ------5------|
d ---5---5-----|
a -3-----------|
E -------------|

And finally

e ---------------------------|
b -3-----3-1-0---------0-----|
g ---0---------2p0-2-----2-0-|
d -----0-------------0-------|
a ---------------------------|
E -3-----3-3-3-3---3---------|


All credit for tab to "Shining Light", or "Dan". 
Tap to rate this tab
# A B C D E F G H I J K L M N O P Q R S T U V W X Y Z